  0
SECTION
  2
HEADER
  9
$ACADVER
  1
AC1009
  9
$DWGCODEPAGE
  3
ansi_1252
  9
$INSBASE
 10
0.0
 20
0.0
 30
0.0
  9
$EXTMIN
 10
4.943364523562225
 20
0.5000423278808593
 30
0.0
  9
$EXTMAX
 10
10.04091172891201
 20
8.495251598173061
 30
0.0
  9
$LIMMIN
 10
0.0
 20
0.0
  9
$LIMMAX
 10
12.0
 20
9.0
  9
$ORTHOMODE
 70
     0
  9
$REGENMODE
 70
     1
  9
$FILLMODE
 70
     1
  9
$QTEXTMODE
 70
     0
  9
$MIRRTEXT
 70
     1
  9
$DRAGMODE
 70
     2
  9
$LTSCALE
 40
1.0
  9
$OSMODE
 70
    37
  9
$ATTMODE
 70
     1
  9
$TEXTSIZE
 40
0.2
  9
$TRACEWID
 40
0.05
  9
$TEXTSTYLE
  7
STANDARD
  9
$CLAYER
  8
0
  9
$CELTYPE
  6
BYLAYER
  9
$CECOLOR
 62
   256
  9
$DIMSCALE
 40
1.0
  9
$DIMASZ
 40
0.18
  9
$DIMEXO
 40
0.0625
  9
$DIMDLI
 40
0.38
  9
$DIMRND
 40
0.0
  9
$DIMDLE
 40
0.0
  9
$DIMEXE
 40
0.18
  9
$DIMTP
 40
0.0
  9
$DIMTM
 40
0.0
  9
$DIMTXT
 40
0.18
  9
$DIMCEN
 40
0.09
  9
$DIMTSZ
 40
0.0
  9
$DIMTOL
 70
     0
  9
$DIMLIM
 70
     0
  9
$DIMTIH
 70
     1
  9
$DIMTOH
 70
     1
  9
$DIMSE1
 70
     0
  9
$DIMSE2
 70
     0
  9
$DIMTAD
 70
     0
  9
$DIMZIN
 70
     0
  9
$DIMBLK
  1

  9
$DIMASO
 70
     1
  9
$DIMSHO
 70
     1
  9
$DIMPOST
  1

  9
$DIMAPOST
  1

  9
$DIMALT
 70
     0
  9
$DIMALTD
 70
     2
  9
$DIMALTF
 40
25.4
  9
$DIMLFAC
 40
1.0
  9
$DIMTOFL
 70
     0
  9
$DIMTVP
 40
0.0
  9
$DIMTIX
 70
     0
  9
$DIMSOXD
 70
     0
  9
$DIMSAH
 70
     0
  9
$DIMBLK1
  1

  9
$DIMBLK2
  1

  9
$DIMSTYLE
  2
STANDARD
  9
$DIMCLRD
 70
     0
  9
$DIMCLRE
 70
     0
  9
$DIMCLRT
 70
     0
  9
$DIMTFAC
 40
1.0
  9
$DIMGAP
 40
0.09
  9
$LUNITS
 70
     2
  9
$LUPREC
 70
     4
  9
$SKETCHINC
 40
0.1
  9
$FILLETRAD
 40
0.5
  9
$AUNITS
 70
     0
  9
$AUPREC
 70
     0
  9
$MENU
  1
.
  9
$ELEVATION
 40
0.0
  9
$PELEVATION
 40
0.0
  9
$THICKNESS
 40
0.0
  9
$LIMCHECK
 70
     0
  9
$CHAMFERA
 40
0.5
  9
$CHAMFERB
 40
0.5
  9
$SKPOLY
 70
     0
  9
$TDCREATE
 40
2454910.5
  9
$TDUPDATE
 40
2455562.352063796
  9
$TDINDWG
 40
0.0000000116
  9
$TDUSRTIMER
 40
0.0000000116
  9
$USRTIMER
 70
     1
  9
$ANGBASE
 50
0.0
  9
$ANGDIR
 70
     0
  9
$PDMODE
 70
     0
  9
$PDSIZE
 40
0.0
  9
$PLINEWID
 40
0.0
  9
$COORDS
 70
     1
  9
$SPLFRAME
 70
     0
  9
$SPLINETYPE
 70
     6
  9
$SPLINESEGS
 70
     8
  9
$ATTDIA
 70
     0
  9
$ATTREQ
 70
     1
  9
$HANDLING
 70
     1
  9
$HANDSEED
  5
351
  9
$SURFTAB1
 70
     6
  9
$SURFTAB2
 70
     6
  9
$SURFTYPE
 70
     6
  9
$SURFU
 70
     6
  9
$SURFV
 70
     6
  9
$UCSNAME
  2

  9
$UCSORG
 10
0.0
 20
0.0
 30
0.0
  9
$UCSXDIR
 10
1.0
 20
0.0
 30
0.0
  9
$UCSYDIR
 10
0.0
 20
1.0
 30
0.0
  9
$PUCSNAME
  2

  9
$PUCSORG
 10
0.0
 20
0.0
 30
0.0
  9
$PUCSXDIR
 10
1.0
 20
0.0
 30
0.0
  9
$PUCSYDIR
 10
0.0
 20
1.0
 30
0.0
  9
$USERI1
 70
     0
  9
$USERI2
 70
     0
  9
$USERI3
 70
     0
  9
$USERI4
 70
     0
  9
$USERI5
 70
     0
  9
$USERR1
 40
0.0
  9
$USERR2
 40
0.0
  9
$USERR3
 40
0.0
  9
$USERR4
 40
0.0
  9
$USERR5
 40
0.0
  9
$WORLDVIEW
 70
     1
  9
$SHADEDGE
 70
     3
  9
$SHADEDIF
 70
    70
  9
$TILEMODE
 70
     1
  9
$MAXACTVP
 70
    64
  9
$PLIMCHECK
 70
     0
  9
$PEXTMIN
 10
1.000000000000000E+20
 20
1.000000000000000E+20
 30
1.000000000000000E+20
  9
$PEXTMAX
 10
-1.000000000000000E+20
 20
-1.000000000000000E+20
 30
-1.000000000000000E+20
  9
$PLIMMIN
 10
0.0
 20
0.0
  9
$PLIMMAX
 10
12.0
 20
9.0
  9
$UNITMODE
 70
     0
  9
$VISRETAIN
 70
     1
  9
$PLINEGEN
 70
     0
  9
$PSLTSCALE
 70
     1
  0
ENDSEC
  0
SECTION
  2
TABLES
  0
TABLE
  2
VPORT
 70
     1
  0
VPORT
  2
*ACTIVE
 70
     0
 10
0.0
 20
0.0
 11
1.0
 21
1.0
 12
10.42990654205607
 22
4.5
 13
0.0
 23
0.0
 14
0.5
 24
0.5
 15
0.5
 25
0.5
 16
0.0
 26
0.0
 36
1.0
 17
0.0
 27
0.0
 37
0.0
 40
9.0
 41
1.972972972850329
 42
50.0
 43
0.0
 44
0.0
 50
0.0
 51
0.0
 71
     0
 72
   100
 73
     1
 74
     3
 75
     0
 76
     0
 77
     0
 78
     0
  0
ENDTAB
  0
TABLE
  2
LTYPE
 70
     2
  0
LTYPE
  2
CONTINUOUS
 70
     0
  3
Solid line
 72
    65
 73
     0
 40
0.0
  0
LTYPE
  2
CONTINUOUS2
 70
     0
  3
Solid Line
 72
    65
 73
     0
 40
0.0
  0
ENDTAB
  0
TABLE
  2
LAYER
 70
     2
  0
LAYER
  2
0
 70
     0
 62
     7
  6
CONTINUOUS
  0
LAYER
  2
SignTorch_BIRD116_
 70
     0
 62
    18
  6
CONTINUOUS
  0
ENDTAB
  0
TABLE
  2
STYLE
 70
     1
  0
STYLE
  2
STANDARD
 70
     0
 40
0.0
 41
1.0
 50
0.0
 71
     0
 42
0.2
  3
txt
  4

  0
ENDTAB
  0
TABLE
  2
VIEW
 70
     0
  0
ENDTAB
  0
TABLE
  2
UCS
 70
     0
  0
ENDTAB
  0
TABLE
  2
APPID
 70
     1
  0
APPID
  2
ACAD
 70
     0
  0
ENDTAB
  0
TABLE
  2
DIMSTYLE
 70
     1
  0
DIMSTYLE
  2
STANDARD
 70
     0
  3

  4

  5

  6

  7

 40
1.0
 41
0.18
 42
0.0625
 43
0.38
 44
0.18
 45
0.0
 46
0.0
 47
0.0
 48
0.0
140
0.18
141
0.09
142
0.0
143
25.4
144
1.0
145
0.0
146
1.0
147
0.09
 71
     0
 72
     0
 73
     1
 74
     1
 75
     0
 76
     0
 77
     0
 78
     0
170
     0
171
     2
172
     0
173
     0
174
     0
175
     0
176
     0
177
     0
178
     0
  0
ENDTAB
  0
ENDSEC
  0
SECTION
  2
BLOCKS
  0
BLOCK
  8
0
  2
$MODEL_SPACE
 70
     0
 10
0.0
 20
0.0
 30
0.0
  3
$MODEL_SPACE
  1

  0
ENDBLK
  5
21
  8
0
  0
BLOCK
 67
     1
  8
0
  2
$PAPER_SPACE
 70
     0
 10
0.0
 20
0.0
 30
0.0
  3
$PAPER_SPACE
  1

  0
ENDBLK
  5
1D
 67
     1
  8
0
  0
ENDSEC
  0
SECTION
  2
ENTITIES
  0
POLYLINE
  5
41
  8
SignTorch_BIRD116_
 66
     1
 10
0.0
 20
0.0
 30
0.0
 70
     1
  0
VERTEX
  5
51
  8
SignTorch_BIRD116_
 10
6.122543180730608
 20
5.427667327880859
 30
0.0
 42
-0.1645102843719353
  0
VERTEX
  5
52
  8
SignTorch_BIRD116_
 10
6.206950989518608
 20
5.42877489281044
 30
0.0
 42
-0.4834953133934995
  0
VERTEX
  5
53
  8
SignTorch_BIRD116_
 10
6.219011930730607
 20
5.396448577880859
 30
0.0
 42
-0.0566927911276054
  0
VERTEX
  5
54
  8
SignTorch_BIRD116_
 10
6.174972521968614
 20
5.339336781811261
 30
0.0
 42
0.0917393988461587
  0
VERTEX
  5
55
  8
SignTorch_BIRD116_
 10
6.015230680730609
 20
5.09929232788086
 30
0.0
 42
-0.0050257879902523
  0
VERTEX
  5
56
  8
SignTorch_BIRD116_
 10
5.967052115363951
 20
4.98972131206721
 30
0.0
 42
-0.524270860983564
  0
VERTEX
  5
57
  8
SignTorch_BIRD116_
 10
5.934605680730607
 20
4.98379232788086
 30
0.0
 42
-0.2854757798879642
  0
VERTEX
  5
58
  8
SignTorch_BIRD116_
 10
5.91937316142838
 20
5.048958794500339
 30
0.0
 42
-0.1229393845957545
  0
VERTEX
  5
59
  8
SignTorch_BIRD116_
 10
5.998230680730608
 20
5.17166732788086
 30
0.0
 42
-0.1309888607369043
  0
VERTEX
  5
5A
  8
SignTorch_BIRD116_
 10
6.024898808049226
 20
5.186045145987656
 30
0.0
 42
0.2502005679985608
  0
VERTEX
  5
5B
  8
SignTorch_BIRD116_
 10
6.047590055730608
 20
5.206120452880859
 30
0.0
 42
0.1625867919853101
  0
VERTEX
  5
5C
  8
SignTorch_BIRD116_
 10
6.050376586427809
 20
5.288525461445053
 30
0.0
 42
-0.1012309471719417
  0
VERTEX
  5
5D
  8
SignTorch_BIRD116_
 10
6.043230680730608
 20
5.370667327880859
 30
0.0
 42
-0.2112215379760046
  0
VERTEX
  5
5E
  8
SignTorch_BIRD116_
 10
6.056448290521041
 20
5.393157950978782
 30
0.0
 42
-0.0711019778460135
  0
SEQEND
  5
5F
  8
SignTorch_BIRD116_
  0
POLYLINE
  5
42
  8
SignTorch_BIRD116_
 66
     1
 10
0.0
 20
0.0
 30
0.0
 70
     1
  0
VERTEX
  5
60
  8
SignTorch_BIRD116_
 10
7.159230680730608
 20
3.819667327880859
 30
0.0
 42
-0.007954216681349
  0
VERTEX
  5
61
  8
SignTorch_BIRD116_
 10
7.110774908664889
 20
3.856957220610984
 30
0.0
 42
-0.338039219447262
  0
VERTEX
  5
62
  8
SignTorch_BIRD116_
 10
7.097230680730608
 20
3.910667327880859
 30
0.0
 42
-0.1488270930520028
  0
VERTEX
  5
63
  8
SignTorch_BIRD116_
 10
7.142540205414811
 20
3.964414596431433
 30
0.0
 42
-0.0376952693266003
  0
VERTEX
  5
64
  8
SignTorch_BIRD116_
 10
7.381230680730608
 20
4.094667327880859
 30
0.0
 42
-0.0617238854240406
  0
VERTEX
  5
65
  8
SignTorch_BIRD116_
 10
7.43654681916657
 20
4.111832421635311
 30
0.0
 42
-0.1594468486776159
  0
VERTEX
  5
66
  8
SignTorch_BIRD116_
 10
7.459230680730608
 20
4.10866732788086
 30
0.0
 42
-0.0512760776436685
  0
VERTEX
  5
67
  8
SignTorch_BIRD116_
 10
7.508002352410671
 20
4.078271071542494
 30
0.0
 42
-0.0466082887126671
  0
VERTEX
  5
68
  8
SignTorch_BIRD116_
 10
7.629230680730608
 20
3.964667327880859
 30
0.0
 42
-0.0288729764285687
  0
VERTEX
  5
69
  8
SignTorch_BIRD116_
 10
7.698779216752499
 20
3.876334198580008
 30
0.0
 42
-0.1668033961048002
  0
VERTEX
  5
6A
  8
SignTorch_BIRD116_
 10
7.717121305730608
 20
3.812229827880859
 30
0.0
 42
0.0782831606259771
  0
VERTEX
  5
6B
  8
SignTorch_BIRD116_
 10
7.741230800081517
 20
3.582061956854745
 30
0.0
 42
-0.025850618506712
  0
VERTEX
  5
6C
  8
SignTorch_BIRD116_
 10
7.789230680730608
 20
3.355667327880859
 30
0.0
 42
-0.0073112325465952
  0
VERTEX
  5
6D
  8
SignTorch_BIRD116_
 10
7.801239579728154
 20
3.272032689474236
 30
0.0
 42
-0.6199242431728634
  0
VERTEX
  5
6E
  8
SignTorch_BIRD116_
 10
7.781230680730608
 20
3.258667327880859
 30
0.0
  0
VERTEX
  5
6F
  8
SignTorch_BIRD116_
 10
7.648230680730607
 20
3.40566732788086
 30
0.0
 42
0.0598677061614804
  0
VERTEX
  5
70
  8
SignTorch_BIRD116_
 10
7.487546078334407
 20
3.542408743856628
 30
0.0
 42
-0.0836756084717694
  0
VERTEX
  5
71
  8
SignTorch_BIRD116_
 10
7.404597868230607
 20
3.62006185913086
 30
0.0
 42
-0.1737371717582069
  0
VERTEX
  5
72
  8
SignTorch_BIRD116_
 10
7.369041737484851
 20
3.732080486983903
 30
0.0
 42
0.4847006160773406
  0
VERTEX
  5
73
  8
SignTorch_BIRD116_
 10
7.320074430730608
 20
3.773729827880859
 30
0.0
 42
0.335980118829557
  0
VERTEX
  5
74
  8
SignTorch_BIRD116_
 10
7.299105947154503
 20
3.750047029710381
 30
0.0
 42
-0.5318181858585556
  0
VERTEX
  5
75
  8
SignTorch_BIRD116_
 10
7.271605680730608
 20
3.734417327880859
 30
0.0
 42
-0.0718461438536119
  0
VERTEX
  5
76
  8
SignTorch_BIRD116_
 10
7.21350661777781
 20
3.774522540352171
 30
0.0
 42
0.0269133768474781
  0
SEQEND
  5
77
  8
SignTorch_BIRD116_
  0
POLYLINE
  5
43
  8
SignTorch_BIRD116_
 66
     1
 10
0.0
 20
0.0
 30
0.0
 70
     1
  0
VERTEX
  5
78
  8
SignTorch_BIRD116_
 10
6.849230680730607
 20
4.10566732788086
 30
0.0
 42
-0.0129821927598187
  0
VERTEX
  5
79
  8
SignTorch_BIRD116_
 10
6.79374077623405
 20
4.165639296500938
 30
0.0
 42
-0.1078138846779307
  0
VERTEX
  5
7A
  8
SignTorch_BIRD116_
 10
6.773230680730607
 20
4.202667327880859
 30
0.0
 42
0.0278344698091017
  0
VERTEX
  5
7B
  8
SignTorch_BIRD116_
 10
6.751104379462822
 20
4.263910309232514
 30
0.0
 42
-0.2635731801998343
  0
VERTEX
  5
7C
  8
SignTorch_BIRD116_
 10
6.752980680730608
 20
4.28043295288086
 30
0.0
 42
-0.1042856191391258
  0
VERTEX
  5
7D
  8
SignTorch_BIRD116_
 10
6.784848297399971
 20
4.309209821191494
 30
0.0
 42
0.0684660749238122
  0
VERTEX
  5
7E
  8
SignTorch_BIRD116_
 10
6.920105680730607
 20
4.414917327880859
 30
0.0
 42
0.06195534606055
  0
VERTEX
  5
7F
  8
SignTorch_BIRD116_
 10
7.041457712137354
 20
4.575563077523189
 30
0.0
 42
-0.0629005754565228
  0
VERTEX
  5
80
  8
SignTorch_BIRD116_
 10
7.071871305730608
 20
4.61566732788086
 30
0.0
 42
-0.3225707554175584
  0
VERTEX
  5
81
  8
SignTorch_BIRD116_
 10
7.092475652072922
 20
4.619252207083155
 30
0.0
 42
-0.108490683536563
  0
VERTEX
  5
82
  8
SignTorch_BIRD116_
 10
7.112230680730607
 20
4.603667327880859
 30
0.0
 42
-0.0172168853483069
  0
VERTEX
  5
83
  8
SignTorch_BIRD116_
 10
7.24296383261492
 20
4.432511147308418
 30
0.0
 42
-0.0152688605448677
  0
VERTEX
  5
84
  8
SignTorch_BIRD116_
 10
7.377527555730607
 20
4.230368499755859
 30
0.0
 42
-0.1102498294470769
  0
VERTEX
  5
85
  8
SignTorch_BIRD116_
 10
7.390986331518885
 20
4.191976570096002
 30
0.0
 42
-0.2213203946906448
  0
VERTEX
  5
86
  8
SignTorch_BIRD116_
 10
7.384418180730608
 20
4.172026702880858
 30
0.0
 42
-0.1278859721964225
  0
VERTEX
  5
87
  8
SignTorch_BIRD116_
 10
7.345254111911142
 20
4.147323560195046
 30
0.0
 42
0.0551086876931657
  0
VERTEX
  5
88
  8
SignTorch_BIRD116_
 10
7.266761930730608
 20
4.112417327880859
 30
0.0
 42
-0.0060689546453199
  0
VERTEX
  5
89
  8
SignTorch_BIRD116_
 10
7.139580235280871
 20
4.040202286945552
 30
0.0
 42
-0.0701218385187617
  0
VERTEX
  5
8A
  8
SignTorch_BIRD116_
 10
7.075230680730607
 20
4.015667327880859
 30
0.0
 42
0.0503588575848049
  0
VERTEX
  5
8B
  8
SignTorch_BIRD116_
 10
6.999483628176095
 20
3.990154650191929
 30
0.0
 42
-0.2588319432702446
  0
VERTEX
  5
8C
  8
SignTorch_BIRD116_
 10
6.956230680730608
 20
3.993667327880859
 30
0.0
 42
-0.0841881752564979
  0
VERTEX
  5
8D
  8
SignTorch_BIRD116_
 10
6.899778817574223
 20
4.046847244329671
 30
0.0
 42
0.031337267354446
  0
SEQEND
  5
8E
  8
SignTorch_BIRD116_
  0
POLYLINE
  5
44
  8
SignTorch_BIRD116_
 66
     1
 10
0.0
 20
0.0
 30
0.0
 70
     1
  0
VERTEX
  5
8F
  8
SignTorch_BIRD116_
 10
7.173230680730608
 20
4.64766732788086
 30
0.0
 42
0.0283633988318344
  0
VERTEX
  5
90
  8
SignTorch_BIRD116_
 10
7.129351391080243
 20
4.695499057736085
 30
0.0
 42
-0.3086347229650634
  0
VERTEX
  5
91
  8
SignTorch_BIRD116_
 10
7.122293180730607
 20
4.73026107788086
 30
0.0
 42
-0.1425024566751481
  0
VERTEX
  5
92
  8
SignTorch_BIRD116_
 10
7.162219553271211
 20
4.779483539258555
 30
0.0
 42
-0.3707538388036918
  0
VERTEX
  5
93
  8
SignTorch_BIRD116_
 10
7.189230680730607
 20
4.776667327880859
 30
0.0
 42
-0.1032675527174258
  0
VERTEX
  5
94
  8
SignTorch_BIRD116_
 10
7.20523437671112
 20
4.750624245244693
 30
0.0
 42
-0.0339476886836562
  0
VERTEX
  5
95
  8
SignTorch_BIRD116_
 10
7.242230680730607
 20
4.620667327880859
 30
0.0
 42
-0.0873770989945695
  0
VERTEX
  5
96
  8
SignTorch_BIRD116_
 10
7.243177082085879
 20
4.593764165325288
 30
0.0
 42
-0.5171524185990379
  0
VERTEX
  5
97
  8
SignTorch_BIRD116_
 10
7.228027555730608
 20
4.58593295288086
 30
0.0
 42
-0.1335237004944972
  0
VERTEX
  5
98
  8
SignTorch_BIRD116_
 10
7.19747182621096
 20
4.61399765414626
 30
0.0
 42
0.0308164674510985
  0
SEQEND
  5
99
  8
SignTorch_BIRD116_
  0
POLYLINE
  5
45
  8
SignTorch_BIRD116_
 66
     1
 10
0.0
 20
0.0
 30
0.0
 70
     1
  0
VERTEX
  5
9A
  8
SignTorch_BIRD116_
 10
8.556230680730607
 20
7.129667327880859
 30
0.0
 42
0.0319934104991309
  0
VERTEX
  5
9B
  8
SignTorch_BIRD116_
 10
8.484113175815818
 20
7.249669962456069
 30
0.0
 42
-0.122183413043695
  0
VERTEX
  5
9C
  8
SignTorch_BIRD116_
 10
8.471679899480609
 20
7.282509124755858
 30
0.0
 42
-0.3479630267367536
  0
VERTEX
  5
9D
  8
SignTorch_BIRD116_
 10
8.489063713735513
 20
7.310802705313613
 30
0.0
 42
-0.2039182128482545
  0
VERTEX
  5
9E
  8
SignTorch_BIRD116_
 10
8.568230680730608
 20
7.306667327880859
 30
0.0
 42
-0.2190287027956588
  0
VERTEX
  5
9F
  8
SignTorch_BIRD116_
 10
8.601446144172568
 20
7.266013475588403
 30
0.0
 42
-0.0429477130230682
  0
VERTEX
  5
A0
  8
SignTorch_BIRD116_
 10
8.644230680730606
 20
7.013667327880859
 30
0.0
 42
0.0576804239739569
  0
VERTEX
  5
A1
  8
SignTorch_BIRD116_
 10
8.649291680661374
 20
6.988355062438258
 30
0.0
 42
-0.8529225621587875
  0
VERTEX
  5
A2
  8
SignTorch_BIRD116_
 10
8.632230680730606
 20
6.979667327880859
 30
0.0
 42
-0.0612685413771012
  0
VERTEX
  5
A3
  8
SignTorch_BIRD116_
 10
8.591374643696993
 20
7.053220269117161
 30
0.0
 42
0.0231340726506832
  0
SEQEND
  5
A4
  8
SignTorch_BIRD116_
  0
POLYLINE
  5
46
  8
SignTorch_BIRD116_
 66
     1
 10
0.0
 20
0.0
 30
0.0
 70
     1
  0
VERTEX
  5
A5
  8
SignTorch_BIRD116_
 10
8.868230680730608
 20
6.65366732788086
 30
0.0
 42
0.0330937458969078
  0
VERTEX
  5
A6
  8
SignTorch_BIRD116_
 10
8.865718547482
 20
6.605642145349449
 30
0.0
 42
-0.0951244070736902
  0
VERTEX
  5
A7
  8
SignTorch_BIRD116_
 10
8.857308805730607
 20
6.558292327880858
 30
0.0
 42
-0.6660016956184468
  0
VERTEX
  5
A8
  8
SignTorch_BIRD116_
 10
8.836905772585611
 20
6.557674778604339
 30
0.0
 42
0.0129636018429444
  0
VERTEX
  5
A9
  8
SignTorch_BIRD116_
 10
8.826230680730607
 20
6.579667327880859
 30
0.0
 42
-0.0360987455668344
  0
VERTEX
  5
AA
  8
SignTorch_BIRD116_
 10
8.747665239608008
 20
6.762600568417129
 30
0.0
 42
-0.0730336664768636
  0
VERTEX
  5
AB
  8
SignTorch_BIRD116_
 10
8.729230680730609
 20
6.859667327880859
 30
0.0
 42
0.0180731980354984
  0
VERTEX
  5
AC
  8
SignTorch_BIRD116_
 10
8.718688243286266
 20
6.994526256567703
 30
0.0
 42
0.0447683031730614
  0
VERTEX
  5
AD
  8
SignTorch_BIRD116_
 10
8.674746305730606
 20
7.207323577880858
 30
0.0
 42
-0.0662697234142751
  0
VERTEX
  5
AE
  8
SignTorch_BIRD116_
 10
8.66490559739215
 20
7.268006921612756
 30
0.0
 42
-0.4681827076404121
  0
VERTEX
  5
AF
  8
SignTorch_BIRD116_
 10
8.672822477605607
 20
7.274999359130859
 30
0.0
 42
-0.1315698504998821
  0
VERTEX
  5
B0
  8
SignTorch_BIRD116_
 10
8.703919502151484
 20
7.26133894500174
 30
0.0
 42
-0.0700106194906356
  0
VERTEX
  5
B1
  8
SignTorch_BIRD116_
 10
8.803136930730608
 20
7.155995452880859
 30
0.0
 42
-0.0448920598648195
  0
VERTEX
  5
B2
  8
SignTorch_BIRD116_
 10
8.886028656742896
 20
7.013196803413739
 30
0.0
 42
-0.1420452931300915
  0
VERTEX
  5
B3
  8
SignTorch_BIRD116_
 10
8.905920133855608
 20
6.88506771850586
 30
0.0
 42
-0.0178577449817763
  0
VERTEX
  5
B4
  8
SignTorch_BIRD116_
 10
8.886793034903857
 20
6.769413514735983
 30
0.0
 42
0.020299182075364
  0
SEQEND
  5
B5
  8
SignTorch_BIRD116_
  0
POLYLINE
  5
47
  8
SignTorch_BIRD116_
 66
     1
 10
0.0
 20
0.0
 30
0.0
 70
     1
  0
VERTEX
  5
B6
  8
SignTorch_BIRD116_
 10
9.235230680730607
 20
5.178667327880859
 30
0.0
 42
-0.1170297013303663
  0
VERTEX
  5
B7
  8
SignTorch_BIRD116_
 10
9.226210550368188
 20
5.214606775704575
 30
0.0
 42
-0.4514502653218096
  0
VERTEX
  5
B8
  8
SignTorch_BIRD116_
 10
9.234668180730608
 20
5.222261077880859
 30
0.0
 42
-0.2658142659121502
  0
VERTEX
  5
B9
  8
SignTorch_BIRD116_
 10
9.259364204225674
 20
5.204173345477145
 30
0.0
 42
-0.2232976847031249
  0
VERTEX
  5
BA
  8
SignTorch_BIRD116_
 10
9.258636930730608
 20
5.168448577880859
 30
0.0
 42
-0.4001938992741746
  0
VERTEX
  5
BB
  8
SignTorch_BIRD116_
 10
9.249661997324418
 20
5.165175448276505
 30
0.0
 42
-0.1717224448465657
  0
SEQEND
  5
BC
  8
SignTorch_BIRD116_
  0
POLYLINE
  5
48
  8
SignTorch_BIRD116_
 66
     1
 10
0.0
 20
0.0
 30
0.0
 70
     1
  0
VERTEX
  5
BD
  8
SignTorch_BIRD116_
 10
9.695230680730607
 20
2.895667327880859
 30
0.0
 42
-0.0066779882755088
  0
VERTEX
  5
BE
  8
SignTorch_BIRD116_
 10
9.704240710561578
 20
2.639078485491019
 30
0.0
 42
0.0158692205584243
  0
VERTEX
  5
BF
  8
SignTorch_BIRD116_
 10
9.717965055730607
 20
2.382698577880859
 30
0.0
 42
-0.0616548589487804
  0
VERTEX
  5
C0
  8
SignTorch_BIRD116_
 10
9.715930382706425
 20
2.329092514709017
 30
0.0
 42
-0.3034274306849864
  0
VERTEX
  5
C1
  8
SignTorch_BIRD116_
 10
9.692230680730606
 20
2.30366732788086
 30
0.0
 42
0.0711074936112782
  0
VERTEX
  5
C2
  8
SignTorch_BIRD116_
 10
9.618736432397803
 20
2.274883283839918
 30
0.0
 42
0.0898676457099785
  0
VERTEX
  5
C3
  8
SignTorch_BIRD116_
 10
9.570605680730608
 20
2.23479232788086
 30
0.0
 42
-0.0145836174150914
  0
VERTEX
  5
C4
  8
SignTorch_BIRD116_
 10
9.541647133370473
 20
2.202184285780362
 30
0.0
 42
-0.4475706793255157
  0
VERTEX
  5
C5
  8
SignTorch_BIRD116_
 10
9.523230680730608
 20
2.202667327880859
 30
0.0
 42
-0.0749463879735973
  0
VERTEX
  5
C6
  8
SignTorch_BIRD116_
 10
9.502315393472113
 20
2.236529993899599
 30
0.0
 42
0.0159619112866435
  0
VERTEX
  5
C7
  8
SignTorch_BIRD116_
 10
9.435230680730607
 20
2.380667327880859
 30
0.0
 42
0.0132578535973073
  0
VERTEX
  5
C8
  8
SignTorch_BIRD116_
 10
9.3167311239118
 20
2.600685939799345
 30
0.0
 42
-0.0027554439737741
  0
VERTEX
  5
C9
  8
SignTorch_BIRD116_
 10
9.193636930730609
 20
2.818167327880859
 30
0.0
 42
-0.0867933618335749
  0
VERTEX
  5
CA
  8
SignTorch_BIRD116_
 10
9.160630184934531
 20
2.912561676398323
 30
0.0
 42
-0.0649565070410039
  0
VERTEX
  5
CB
  8
SignTorch_BIRD116_
 10
9.156170133855609
 20
3.04566342163086
 30
0.0
 42
-0.1300691597735643
  0
VERTEX
  5
CC
  8
SignTorch_BIRD116_
 10
9.167626506491915
 20
3.076575212422882
 30
0.0
 42
-0.2011140157104336
  0
VERTEX
  5
CD
  8
SignTorch_BIRD116_
 10
9.18610568073061
 20
3.08816732788086
 30
0.0
 42
-0.005962582673941
  0
VERTEX
  5
CE
  8
SignTorch_BIRD116_
 10
9.248617358376196
 20
3.097704485156865
 30
0.0
 42
0.1024244319932852
  0
VERTEX
  5
CF
  8
SignTorch_BIRD116_
 10
9.293230680730607
 20
3.113667327880859
 30
0.0
 42
0.1174428004654966
  0
VERTEX
  5
D0
  8
SignTorch_BIRD116_
 10
9.41003133094329
 20
3.229575278963381
 30
0.0
 42
0.0803161548964044
  0
VERTEX
  5
D1
  8
SignTorch_BIRD116_
 10
9.501980680730608
 20
3.450042327880859
 30
0.0
 42
0.0572276308737601
  0
VERTEX
  5
D2
  8
SignTorch_BIRD116_
 10
9.509134102056077
 20
3.509112935773461
 30
0.0
 42
0.406658200141457
  0
VERTEX
  5
D3
  8
SignTorch_BIRD116_
 10
9.485418180730608
 20
3.533753265380859
 30
0.0
 42
0.0825163995626766
  0
VERTEX
  5
D4
  8
SignTorch_BIRD116_
 10
9.450094427329613
 20
3.52904121150481
 30
0.0
 42
-0.0112301678715693
  0
VERTEX
  5
D5
  8
SignTorch_BIRD116_
 10
9.313174040105608
 20
3.490436859130859
 30
0.0
 42
0.1106021081191118
  0
VERTEX
  5
D6
  8
SignTorch_BIRD116_
 10
9.167573939385706
 20
3.415988522626082
 30
0.0
 42
0.229181555447257
  0
VERTEX
  5
D7
  8
SignTorch_BIRD116_
 10
9.098871305730606
 20
3.265089202880859
 30
0.0
 42
0.0501130695672634
  0
VERTEX
  5
D8
  8
SignTorch_BIRD116_
 10
9.10891628761987
 20
3.18415506448647
 30
0.0
 42
-0.0917425154414739
  0
VERTEX
  5
D9
  8
SignTorch_BIRD116_
 10
9.112230680730606
 20
3.102667327880859
 30
0.0
 42
0.0474069982301693
  0
VERTEX
  5
DA
  8
SignTorch_BIRD116_
 10
9.1066235844509
 20
2.984907292571431
 30
0.0
 42
-0.210481887506307
  0
VERTEX
  5
DB
  8
SignTorch_BIRD116_
 10
9.095918180730607
 20
2.95712045288086
 30
0.0
 42
-0.4169973993352095
  0
VERTEX
  5
DC
  8
SignTorch_BIRD116_
 10
9.06396081574044
 20
2.957184361046645
 30
0.0
 42
-0.180356788144048
  0
VERTEX
  5
DD
  8
SignTorch_BIRD116_
 10
9.025183805730608
 20
3.043604827880859
 30
0.0
 42
0.0618568476201297
  0
VERTEX
  5
DE
  8
SignTorch_BIRD116_
 10
8.96542826657334
 20
3.356926806757646
 30
0.0
 42
0.0601435748007891
  0
VERTEX
  5
DF
  8
SignTorch_BIRD116_
 10
8.828058805730606
 20
3.654761077880859
 30
0.0
 42
-0.0057294434912882
  0
VERTEX
  5
E0
  8
SignTorch_BIRD116_
 10
8.779416058209659
 20
3.735755960089
 30
0.0
 42
-0.1925800509978321
  0
VERTEX
  5
E1
  8
SignTorch_BIRD116_
 10
8.766605680730608
 20
3.821167327880859
 30
0.0
 42
0.002413193619834
  0
VERTEX
  5
E2
  8
SignTorch_BIRD116_
 10
8.799340315046887
 20
3.963016199691866
 30
0.0
 42
0.0259637694707424
  0
VERTEX
  5
E3
  8
SignTorch_BIRD116_
 10
8.811136930730607
 20
4.031714202880859
 30
0.0
 42
0.0658155942110648
  0
VERTEX
  5
E4
  8
SignTorch_BIRD116_
 10
8.807512913944784
 20
4.304200478687462
 30
0.0
 42
0.127479417471222
  0
VERTEX
  5
E5
  8
SignTorch_BIRD116_
 10
8.752293180730607
 20
4.43541732788086
 30
0.0
 42
0.1190667580685968
  0
VERTEX
  5
E6
  8
SignTorch_BIRD116_
 10
8.352967326043583
 20
4.759564341744444
 30
0.0
 42
-0.1195621019165851
  0
VERTEX
  5
E7
  8
SignTorch_BIRD116_
 10
8.253215055730609
 20
4.840698577880859
 30
0.0
 42
-0.0449925286429565
  0
VERTEX
  5
E8
  8
SignTorch_BIRD116_
 10
8.176112398297402
 20
4.96366699598741
 30
0.0
 42
0.0369911274117275
  0
VERTEX
  5
E9
  8
SignTorch_BIRD116_
 10
8.036590055730606
 20
5.194292327880859
 30
0.0
 42
0.0550858779988069
  0
VERTEX
  5
EA
  8
SignTorch_BIRD116_
 10
7.941712185638076
 20
5.300721838221115
 30
0.0
 42
0.2354975089584728
  0
VERTEX
  5
EB
  8
SignTorch_BIRD116_
 10
7.918043180730608
 20
5.307274749755859
 30
0.0
 42
0.3471679711963825
  0
VERTEX
  5
EC
  8
SignTorch_BIRD116_
 10
7.913090523830525
 20
5.301512938121047
 30
0.0
 42
0.08422288338844
  0
VERTEX
  5
ED
  8
SignTorch_BIRD116_
 10
7.916636930730608
 20
5.273589202880859
 30
0.0
 42
0.0683720328313171
  0
VERTEX
  5
EE
  8
SignTorch_BIRD116_
 10
7.976187648397689
 20
5.144052315623297
 30
0.0
 42
-0.0507467951545161
  0
VERTEX
  5
EF
  8
SignTorch_BIRD116_
 10
8.095154508855607
 20
4.907530609130859
 30
0.0
 42
-0.0768129639028233
  0
VERTEX
  5
F0
  8
SignTorch_BIRD116_
 10
8.127339349198282
 20
4.75748697887679
 30
0.0
 42
-0.0781775598267359
  0
VERTEX
  5
F1
  8
SignTorch_BIRD116_
 10
8.112574430730607
 20
4.60740170288086
 30
0.0
 42
-0.136143869970875
  0
VERTEX
  5
F2
  8
SignTorch_BIRD116_
 10
8.02491008595658
 20
4.455956049650974
 30
0.0
 42
0.0758894856589645
  0
VERTEX
  5
F3
  8
SignTorch_BIRD116_
 10
7.829968961980607
 20
4.196227874755859
 30
0.0
 42
0.0561232074684506
  0
VERTEX
  5
F4
  8
SignTorch_BIRD116_
 10
7.763234978173919
 20
4.029264390497415
 30
0.0
 42
-0.095127610479006
  0
VERTEX
  5
F5
  8
SignTorch_BIRD116_
 10
7.743355680730607
 20
3.988917327880859
 30
0.0
 42
-0.4416085318292103
  0
VERTEX
  5
F6
  8
SignTorch_BIRD116_
 10
7.716108964710591
 20
3.986414306689487
 30
0.0
 42
-0.0138307803599549
  0
VERTEX
  5
F7
  8
SignTorch_BIRD116_
 10
7.669230680730608
 20
4.031667327880859
 30
0.0
 42
0.0032426476982928
  0
VERTEX
  5
F8
  8
SignTorch_BIRD116_
 10
7.51638707050971
 20
4.185595574866993
 30
0.0
 42
-0.060113655698774
  0
VERTEX
  5
F9
  8
SignTorch_BIRD116_
 10
7.414629118230607
 20
4.314495452880859
 30
0.0
 42
-0.1057827310311546
  0
VERTEX
  5
FA
  8
SignTorch_BIRD116_
 10
7.387592405261535
 20
4.391563764375579
 30
0.0
 42
-0.5985767168857602
  0
VERTEX
  5
FB
  8
SignTorch_BIRD116_
 10
7.403386930730607
 20
4.40280795288086
 30
0.0
 42
-0.0401534458973171
  0
VERTEX
  5
FC
  8
SignTorch_BIRD116_
 10
7.451765391174177
 20
4.373786261144815
 30
0.0
 42
0.1244769125291615
  0
VERTEX
  5
FD
  8
SignTorch_BIRD116_
 10
7.549199430730607
 20
4.335667327880859
 30
0.0
 42
0.1145789660991194
  0
VERTEX
  5
FE
  8
SignTorch_BIRD116_
 10
7.652021923506271
 20
4.346287466716163
 30
0.0
 42
0.0884187444732499
  0
VERTEX
  5
FF
  8
SignTorch_BIRD116_
 10
7.768480680730607
 20
4.411042327880859
 30
0.0
 42
0.0814842571226002
  0
VERTEX
  5
100
  8
SignTorch_BIRD116_
 10
7.800163498617775
 20
4.446850808387954
 30
0.0
 42
0.2268905900708676
  0
VERTEX
  5
101
  8
SignTorch_BIRD116_
 10
7.802230680730607
 20
4.46466732788086
 30
0.0
 42
0.1385674639227021
  0
VERTEX
  5
102
  8
SignTorch_BIRD116_
 10
7.776276219515236
 20
4.502112808448821
 30
0.0
 42
0.0449652152480814
  0
VERTEX
  5
103
  8
SignTorch_BIRD116_
 10
7.609433805730608
 20
4.616120452880859
 30
0.0
 42
0.0740108342589602
  0
VERTEX
  5
104
  8
SignTorch_BIRD116_
 10
7.526817042297441
 20
4.647389878669818
 30
0.0
 42
0.2973993748432756
  0
VERTEX
  5
105
  8
SignTorch_BIRD116_
 10
7.418261930730608
 20
4.60602474975586
 30
0.0
 42
0.0911571754670372
  0
VERTEX
  5
106
  8
SignTorch_BIRD116_
 10
7.373882416278599
 20
4.513391838770206
 30
0.0
 42
-0.2989272096105926
  0
VERTEX
  5
107
  8
SignTorch_BIRD116_
 10
7.354350065496233
 20
4.496091156005859
 30
0.0
 42
-0.3852807957285951
  0
VERTEX
  5
108
  8
SignTorch_BIRD116_
 10
7.333781747254565
 20
4.509909546496543
 30
0.0
 42
-0.0005716921858924
  0
VERTEX
  5
109
  8
SignTorch_BIRD116_
 10
7.311246305730608
 20
4.600979827880859
 30
0.0
 42
0.055030351468467
  0
VERTEX
  5
10A
  8
SignTorch_BIRD116_
 10
7.245034666638282
 20
4.781590613284135
 30
0.0
 42
-0.2299902228664675
  0
VERTEX
  5
10B
  8
SignTorch_BIRD116_
 10
7.244074430730608
 20
4.885776702880859
 30
0.0
 42
-0.0287078725159284
  0
VERTEX
  5
10C
  8
SignTorch_BIRD116_
 10
7.300208947110367
 20
4.988456555780961
 30
0.0
 42
0.0701687498825221
  0
VERTEX
  5
10D
  8
SignTorch_BIRD116_
 10
7.388318571355608
 20
5.187040374755859
 30
0.0
 42
0.0973917939810087
  0
VERTEX
  5
10E
  8
SignTorch_BIRD116_
 10
7.42074689377086
 20
5.575365083461005
 30
0.0
 42
0.0989594773808722
  0
VERTEX
  5
10F
  8
SignTorch_BIRD116_
 10
7.304402555730608
 20
5.940917327880859
 30
0.0
 42
0.0294897133792627
  0
VERTEX
  5
110
  8
SignTorch_BIRD116_
 10
7.208031069680636
 20
6.093149333098939
 30
0.0
 42
-0.0905366159339288
  0
VERTEX
  5
111
  8
SignTorch_BIRD116_
 10
7.130840055730607
 20
6.25594857788086
 30
0.0
 42
-0.0246170275409922
  0
VERTEX
  5
112
  8
SignTorch_BIRD116_
 10
7.071386310552681
 20
6.530908875306394
 30
0.0
 42
-0.0946433465815415
  0
VERTEX
  5
113
  8
SignTorch_BIRD116_
 10
7.073230680730608
 20
6.604667327880859
 30
0.0
 42
-0.0640311719578953
  0
VERTEX
  5
114
  8
SignTorch_BIRD116_
 10
7.139140364139308
 20
6.790039992482768
 30
0.0
 42
-0.036878180366884
  0
VERTEX
  5
115
  8
SignTorch_BIRD116_
 10
7.315230680730608
 20
7.081667327880859
 30
0.0
 42
0.0389207834021738
  0
VERTEX
  5
116
  8
SignTorch_BIRD116_
 10
7.346467417962707
 20
7.133879394324655
 30
0.0
 42
0.1103771191091157
  0
VERTEX
  5
117
  8
SignTorch_BIRD116_
 10
7.351652555730607
 20
7.154932952880859
 30
0.0
 42
0.1076608909980084
  0
VERTEX
  5
118
  8
SignTorch_BIRD116_
 10
7.340338686637747
 20
7.212860554035003
 30
0.0
 42
-0.6011597982111597
  0
VERTEX
  5
119
  8
SignTorch_BIRD116_
 10
7.360976286199358
 20
7.238635101318358
 30
0.0
 42
-0.3919942358509859
  0
VERTEX
  5
11A
  8
SignTorch_BIRD116_
 10
7.376805298082846
 20
7.217228484326847
 30
0.0
 42
0.1828411611569672
  0
VERTEX
  5
11B
  8
SignTorch_BIRD116_
 10
7.402886930730608
 20
7.115604827880859
 30
0.0
 42
0.3475660055248441
  0
VERTEX
  5
11C
  8
SignTorch_BIRD116_
 10
7.442520624265113
 20
7.103826269086155
 30
0.0
 42
0.3654914323305482
  0
VERTEX
  5
11D
  8
SignTorch_BIRD116_
 10
7.461230680730607
 20
7.138917327880858
 30
0.0
 42
0.1252087894489599
  0
VERTEX
  5
11E
  8
SignTorch_BIRD116_
 10
7.433806293436991
 20
7.19425665937406
 30
0.0
 42
-0.1946889673923853
  0
VERTEX
  5
11F
  8
SignTorch_BIRD116_
 10
7.414105680730607
 20
7.252792327880859
 30
0.0
 42
-0.6564259571256923
  0
VERTEX
  5
120
  8
SignTorch_BIRD116_
 10
7.446392145637764
 20
7.264545613612355
 30
0.0
 42
0.1212633155250826
  0
VERTEX
  5
121
  8
SignTorch_BIRD116_
 10
7.497808805730608
 20
7.231495452880858
 30
0.0
 42
0.1679200033317753
  0
VERTEX
  5
122
  8
SignTorch_BIRD116_
 10
7.532529496399154
 20
7.23159244283042
 30
0.0
 42
0.2972688008502869
  0
VERTEX
  5
123
  8
SignTorch_BIRD116_
 10
7.545215055730607
 20
7.248026702880859
 30
0.0
 42
0.1766053911523857
  0
VERTEX
  5
124
  8
SignTorch_BIRD116_
 10
7.53115565185707
 20
7.298800237194506
 30
0.0
 42
-0.1745424105332466
  0
VERTEX
  5
125
  8
SignTorch_BIRD116_
 10
7.474105680730608
 20
7.501667327880858
 30
0.0
 42
0.01011729442103
  0
VERTEX
  5
126
  8
SignTorch_BIRD116_
 10
7.480424218467713
 20
7.624893294548661
 30
0.0
 42
0.0399456699921618
  0
VERTEX
  5
127
  8
SignTorch_BIRD116_
 10
7.476230680730607
 20
7.710667327880858
 30
0.0
 42
0.0192641552123924
  0
VERTEX
  5
128
  8
SignTorch_BIRD116_
 10
7.46819445769557
 20
7.758275159537108
 30
0.0
 42
-0.4267775291646431
  0
VERTEX
  5
129
  8
SignTorch_BIRD116_
 10
7.489449430730607
 20
7.789276702880858
 30
0.0
 42
0.4249769966097953
  0
VERTEX
  5
12A
  8
SignTorch_BIRD116_
 10
7.51210107020411
 20
7.822100379918055
 30
0.0
 42
0.049613304284966
  0
VERTEX
  5
12B
  8
SignTorch_BIRD116_
 10
7.490480680730608
 20
7.892292327880858
 30
0.0
 42
0.043640322755
  0
VERTEX
  5
12C
  8
SignTorch_BIRD116_
 10
7.440652073878125
 20
7.986808573506327
 30
0.0
 42
-0.4863658649241225
  0
VERTEX
  5
12D
  8
SignTorch_BIRD116_
 10
7.464855680730608
 20
8.056792327880858
 30
0.0
 42
-0.1840766295426374
  0
VERTEX
  5
12E
  8
SignTorch_BIRD116_
 10
7.591963368172474
 20
8.0527727869091
 30
0.0
 42
-0.0748176030837689
  0
VERTEX
  5
12F
  8
SignTorch_BIRD116_
 10
7.852191618230608
 20
7.894993499755858
 30
0.0
 42
-0.0501107247684395
  0
VERTEX
  5
130
  8
SignTorch_BIRD116_
 10
8.081153991947199
 20
7.661805293651474
 30
0.0
 42
0.0128751523033428
  0
VERTEX
  5
131
  8
SignTorch_BIRD116_
 10
8.292152555730608
 20
7.412245452880859
 30
0.0
 42
-0.0005757929063727
  0
VERTEX
  5
132
  8
SignTorch_BIRD116_
 10
8.321877837273338
 20
7.378792435194155
 30
0.0
 42
-0.4974837939603358
  0
VERTEX
  5
133
  8
SignTorch_BIRD116_
 10
8.314230680730606
 20
7.340667327880858
 30
0.0
 42
0.005573630880556
  0
VERTEX
  5
134
  8
SignTorch_BIRD116_
 10
8.262525380684709
 20
7.315003329391283
 30
0.0
 42
-0.1050871147913878
  0
VERTEX
  5
135
  8
SignTorch_BIRD116_
 10
8.220215055730607
 20
7.303636077880858
 30
0.0
 42
-0.0208977033746504
  0
VERTEX
  5
136
  8
SignTorch_BIRD116_
 10
8.150195838537403
 20
7.302846856936096
 30
0.0
 42
0.4183624186068682
  0
VERTEX
  5
137
  8
SignTorch_BIRD116_
 10
8.111230680730607
 20
7.265667327880859
 30
0.0
 42
-0.28448413356583
  0
VERTEX
  5
138
  8
SignTorch_BIRD116_
 10
8.087938236973146
 20
7.22938364906154
 30
0.0
 42
0.1141445353573694
  0
VERTEX
  5
139
  8
SignTorch_BIRD116_
 10
7.954523649480608
 20
7.123014984130858
 30
0.0
 42
0.039877448391985
  0
VERTEX
  5
13A
  8
SignTorch_BIRD116_
 10
7.883527950371454
 20
7.017141019531902
 30
0.0
 42
-0.1418164956243436
  0
VERTEX
  5
13B
  8
SignTorch_BIRD116_
 10
7.792730680730608
 20
6.92766732788086
 30
0.0
 42
0.0064591713504646
  0
VERTEX
  5
13C
  8
SignTorch_BIRD116_
 10
7.747967564741466
 20
6.902674499276306
 30
0.0
 42
0.4414332943381368
  0
VERTEX
  5
13D
  8
SignTorch_BIRD116_
 10
7.738105680730607
 20
6.857995452880859
 30
0.0
 42
0.1460199122547575
  0
VERTEX
  5
13E
  8
SignTorch_BIRD116_
 10
7.757886314522335
 20
6.842432192419726
 30
0.0
 42
-0.5527222451844469
  0
VERTEX
  5
13F
  8
SignTorch_BIRD116_
 10
7.766230680730608
 20
6.797667327880859
 30
0.0
 42
-0.2527863822111025
  0
VERTEX
  5
140
  8
SignTorch_BIRD116_
 10
7.690905649996619
 20
6.778431670761386
 30
0.0
 42
0.5059275724409278
  0
VERTEX
  5
141
  8
SignTorch_BIRD116_
 10
7.631025602605606
 20
6.728850921630859
 30
0.0
 42
0.4425270364044147
  0
VERTEX
  5
142
  8
SignTorch_BIRD116_
 10
7.664637064178616
 20
6.701670155519893
 30
0.0
 42
0.1240514628163901
  0
VERTEX
  5
143
  8
SignTorch_BIRD116_
 10
7.785230680730607
 20
6.752667327880859
 30
0.0
 42
-0.110558407374594
  0
VERTEX
  5
144
  8
SignTorch_BIRD116_
 10
7.815996564500754
 20
6.766654396313379
 30
0.0
 42
-0.5411906644658501
  0
VERTEX
  5
145
  8
SignTorch_BIRD116_
 10
7.822230680730608
 20
6.760417327880859
 30
0.0
 42
-0.2000712578778208
  0
VERTEX
  5
146
  8
SignTorch_BIRD116_
 10
7.78485282241193
 20
6.70600160346454
 30
0.0
 42
0.2261085846595616
  0
VERTEX
  5
147
  8
SignTorch_BIRD116_
 10
7.750230680730607
 20
6.649792327880859
 30
0.0
 42
0.4304799043907657
  0
VERTEX
  5
148
  8
SignTorch_BIRD116_
 10
7.771228306358312
 20
6.62514848761229
 30
0.0
 42
0.2346912780679944
  0
VERTEX
  5
149
  8
SignTorch_BIRD116_
 10
7.819730680730608
 20
6.646167327880859
 30
0.0
 42
0.0879219575418287
  0
VERTEX
  5
14A
  8
SignTorch_BIRD116_
 10
7.854015635133998
 20
6.705299319696484
 30
0.0
 42
-0.6604372494981439
  0
VERTEX
  5
14B
  8
SignTorch_BIRD116_
 10
7.872886930730608
 20
6.706307952880859
 30
0.0
 42
-0.2361335732697825
  0
VERTEX
  5
14C
  8
SignTorch_BIRD116_
 10
7.872693699030557
 20
6.6784386662583
 30
0.0
 42
0.1292747886762986
  0
VERTEX
  5
14D
  8
SignTorch_BIRD116_
 10
7.861746305730607
 20
6.627964202880859
 30
0.0
 42
0.2149028620784953
  0
VERTEX
  5
14E
  8
SignTorch_BIRD116_
 10
7.872958435272429
 20
6.605721566375074
 30
0.0
 42
0.2511873194015777
  0
VERTEX
  5
14F
  8
SignTorch_BIRD116_
 10
7.894230680730607
 20
6.601667327880859
 30
0.0
 42
0.0781895162764077
  0
VERTEX
  5
150
  8
SignTorch_BIRD116_
 10
7.960509951994898
 20
6.63449900498015
 30
0.0
 42
0.1558992386411808
  0
VERTEX
  5
151
  8
SignTorch_BIRD116_
 10
7.983230680730607
 20
6.664667327880859
 30
0.0
 42
0.0556039752938968
  0
VERTEX
  5
152
  8
SignTorch_BIRD116_
 10
7.993615751861619
 20
6.71002074658675
 30
0.0
 42
-0.1511774891868103
  0
VERTEX
  5
153
  8
SignTorch_BIRD116_
 10
8.068230680730608
 20
6.879792327880859
 30
0.0
 42
-0.0389621461180604
  0
VERTEX
  5
154
  8
SignTorch_BIRD116_
 10
8.136651498351403
 20
6.947307950620242
 30
0.0
 42
-0.2492120333364287
  0
VERTEX
  5
155
  8
SignTorch_BIRD116_
 10
8.152230680730607
 20
6.950667327880859
 30
0.0
 42
-0.3078193555481862
  0
VERTEX
  5
156
  8
SignTorch_BIRD116_
 10
8.159003789637735
 20
6.942584646539914
 30
0.0
 42
-0.0525850266292199
  0
VERTEX
  5
157
  8
SignTorch_BIRD116_
 10
8.158730680730606
 20
6.886042327880859
 30
0.0
 42
-0.087844117270698
  0
VERTEX
  5
158
  8
SignTorch_BIRD116_
 10
8.099763739518686
 20
6.684878946884051
 30
0.0
 42
0.0700037313336795
  0
VERTEX
  5
159
  8
SignTorch_BIRD116_
 10
8.083246305730608
 20
6.635136077880859
 30
0.0
 42
0.6035257150795065
  0
VERTEX
  5
15A
  8
SignTorch_BIRD116_
 10
8.118875272988536
 20
6.60716305175529
 30
0.0
 42
0.0221861342781878
  0
VERTEX
  5
15B
  8
SignTorch_BIRD116_
 10
8.161949430730608
 20
6.62876107788086
 30
0.0
 42
-0.5895822331903638
  0
VERTEX
  5
15C
  8
SignTorch_BIRD116_
 10
8.183649190144695
 20
6.615267880704137
 30
0.0
 42
-0.1102016624113483
  0
VERTEX
  5
15D
  8
SignTorch_BIRD116_
 10
8.156215055730607
 20
6.516323577880859
 30
0.0
 42
0.1282912275885048
  0
VERTEX
  5
15E
  8
SignTorch_BIRD116_
 10
8.146317329112822
 20
6.474947784603929
 30
0.0
 42
0.7514629029208145
  0
VERTEX
  5
15F
  8
SignTorch_BIRD116_
 10
8.194590055730608
 20
6.46202670288086
 30
0.0
 42
0.1697419713464246
  0
VERTEX
  5
160
  8
SignTorch_BIRD116_
 10
8.21373791005569
 20
6.553121205755892
 30
0.0
 42
-0.1928230162799202
  0
VERTEX
  5
161
  8
SignTorch_BIRD116_
 10
8.226230680730607
 20
6.601667327880859
 30
0.0
 42
-0.5930117669604923
  0
VERTEX
  5
162
  8
SignTorch_BIRD116_
 10
8.243213975167045
 20
6.599402436076752
 30
0.0
 42
-0.0850354723970319
  0
VERTEX
  5
163
  8
SignTorch_BIRD116_
 10
8.260730680730608
 20
6.51210482788086
 30
0.0
 42
-0.1363926251778899
  0
VERTEX
  5
164
  8
SignTorch_BIRD116_
 10
8.249438488192395
 20
6.466504339194473
 30
0.0
 42
0.5426758032342591
  0
VERTEX
  5
165
  8
SignTorch_BIRD116_
 10
8.271154508855608
 20
6.424847015380859
 30
0.0
 42
0.2456536128100179
  0
VERTEX
  5
166
  8
SignTorch_BIRD116_
 10
8.304756924110688
 20
6.438499444570518
 30
0.0
 42
0.2307349149102054
  0
VERTEX
  5
167
  8
SignTorch_BIRD116_
 10
8.314230680730606
 20
6.475667327880859
 30
0.0
 42
0.0157072759945918
  0
VERTEX
  5
168
  8
SignTorch_BIRD116_
 10
8.295286599571929
 20
6.554662629767249
 30
0.0
 42
-0.0773985399784534
  0
VERTEX
  5
169
  8
SignTorch_BIRD116_
 10
8.286183805730607
 20
6.63538607788086
 30
0.0
 42
-0.1118680429979988
  0
VERTEX
  5
16A
  8
SignTorch_BIRD116_
 10
8.289186294650401
 20
6.646449405416903
 30
0.0
 42
-0.2991579768656493
  0
VERTEX
  5
16B
  8
SignTorch_BIRD116_
 10
8.293230680730607
 20
6.648667327880859
 30
0.0
 42
-0.2357799865148422
  0
VERTEX
  5
16C
  8
SignTorch_BIRD116_
 10
8.307792575066026
 20
6.639881791360629
 30
0.0
 42
0.131861188545915
  0
VERTEX
  5
16D
  8
SignTorch_BIRD116_
 10
8.357654508855607
 20
6.594009124755859
 30
0.0
 42
0.6075149643701854
  0
VERTEX
  5
16E
  8
SignTorch_BIRD116_
 10
8.394835213937649
 20
6.620012649880677
 30
0.0
 42
-0.0479115014773028
  0
VERTEX
  5
16F
  8
SignTorch_BIRD116_
 10
8.388996305730608
 20
6.783870452880858
 30
0.0
 42
-0.0456388552061987
  0
VERTEX
  5
170
  8
SignTorch_BIRD116_
 10
8.413027235239616
 20
6.941438435473188
 30
0.0
 42
0.0609680650141217
  0
VERTEX
  5
171
  8
SignTorch_BIRD116_
 10
8.432230680730608
 20
7.099667327880859
 30
0.0
 42
-0.0524054520725867
  0
VERTEX
  5
172
  8
SignTorch_BIRD116_
 10
8.435940523776226
 20
7.135312365709527
 30
0.0
 42
-0.6329738528990205
  0
VERTEX
  5
173
  8
SignTorch_BIRD116_
 10
8.454230680730607
 20
7.139667327880859
 30
0.0
 42
-0.0713868539303085
  0
VERTEX
  5
174
  8
SignTorch_BIRD116_
 10
8.481085065343306
 20
7.094188458779406
 30
0.0
 42
0.0382875817668408
  0
VERTEX
  5
175
  8
SignTorch_BIRD116_
 10
8.576230680730607
 20
6.905667327880859
 30
0.0
 42
-0.0389133587764168
  0
VERTEX
  5
176
  8
SignTorch_BIRD116_
 10
8.706163428403453
 20
6.6474172780099
 30
0.0
 42
-0.0304764882450487
  0
VERTEX
  5
177
  8
SignTorch_BIRD116_
 10
8.824806852605608
 20
6.29810678100586
 30
0.0
 42
-0.0299135580252524
  0
VERTEX
  5
178
  8
SignTorch_BIRD116_
 10
8.854459503400092
 20
6.156685332698655
 30
0.0
 42
0.0357051117117026
  0
VERTEX
  5
179
  8
SignTorch_BIRD116_
 10
8.979605680730607
 20
5.592417327880859
 30
0.0
 42
0.0173419676881366
  0
VERTEX
  5
17A
  8
SignTorch_BIRD116_
 10
9.035244963215499
 20
5.426914123236075
 30
0.0
 42
-0.0767203790504914
  0
VERTEX
  5
17B
  8
SignTorch_BIRD116_
 10
9.044179899480607
 20
5.384124359130858
 30
0.0
 42
-0.6075309421589471
  0
VERTEX
  5
17C
  8
SignTorch_BIRD116_
 10
9.029108173512824
 20
5.375260531132978
 30
0.0
 42
0.0052103221390171
  0
VERTEX
  5
17D
  8
SignTorch_BIRD116_
 10
8.976230680730607
 20
5.407667327880859
 30
0.0
 42
-0.0184677735474284
  0
VERTEX
  5
17E
  8
SignTorch_BIRD116_
 10
8.888897065132207
 20
5.464429384627259
 30
0.0
 42
-0.0916970606347958
  0
VERTEX
  5
17F
  8
SignTorch_BIRD116_
 10
8.874105680730608
 20
5.47954232788086
 30
0.0
 42
-0.0313370486504497
  0
VERTEX
  5
180
  8
SignTorch_BIRD116_
 10
8.821710439615254
 20
5.569149537641624
 30
0.0
 42
0.0692802823949567
  0
VERTEX
  5
181
  8
SignTorch_BIRD116_
 10
8.762689665105606
 20
5.65453842163086
 30
0.0
 42
0.110196084120581
  0
VERTEX
  5
182
  8
SignTorch_BIRD116_
 10
8.5908497181212
 20
5.774169288484712
 30
0.0
 42
0.0843432895067621
  0
VERTEX
  5
183
  8
SignTorch_BIRD116_
 10
8.325230680730607
 20
5.83366732788086
 30
0.0
 42
-0.0245090414349992
  0
VERTEX
  5
184
  8
SignTorch_BIRD116_
 10
8.09168034633298
 20
5.85735536741243
 30
0.0
 42
0.0877010067013313
  0
VERTEX
  5
185
  8
SignTorch_BIRD116_
 10
8.032918180730608
 20
5.855893890380859
 30
0.0
 42
0.5421493627516462
  0
VERTEX
  5
186
  8
SignTorch_BIRD116_
 10
8.016507831543038
 20
5.814493640996912
 30
0.0
 42
-0.0230521786139509
  0
VERTEX
  5
187
  8
SignTorch_BIRD116_
 10
8.104230680730607
 20
5.677667327880859
 30
0.0
 42
0.0148496752553174
  0
VERTEX
  5
188
  8
SignTorch_BIRD116_
 10
8.293259973545249
 20
5.371905803542523
 30
0.0
 42
0.2628250790501749
  0
VERTEX
  5
189
  8
SignTorch_BIRD116_
 10
8.60210568073061
 20
5.213714202880859
 30
0.0
 42
0.1400755527060818
  0
VERTEX
  5
18A
  8
SignTorch_BIRD116_
 10
8.734772395104129
 20
5.257531786871797
 30
0.0
 42
0.0612191859066837
  0
VERTEX
  5
18B
  8
SignTorch_BIRD116_
 10
8.845605680730609
 20
5.354667327880859
 30
0.0
 42
-0.0944928029089234
  0
VERTEX
  5
18C
  8
SignTorch_BIRD116_
 10
8.872598507909181
 20
5.375336367558873
 30
0.0
 42
-0.1850515333583465
  0
VERTEX
  5
18D
  8
SignTorch_BIRD116_
 10
8.890306852605606
 20
5.377097015380858
 30
0.0
 42
-0.071723007249472
  0
VERTEX
  5
18E
  8
SignTorch_BIRD116_
 10
8.910715770525579
 20
5.368225087587053
 30
0.0
 42
-0.0128884378464475
  0
VERTEX
  5
18F
  8
SignTorch_BIRD116_
 10
9.013855680730607
 20
5.30079232788086
 30
0.0
 42
-0.0570473255757565
  0
VERTEX
  5
190
  8
SignTorch_BIRD116_
 10
9.087380274473665
 20
5.236463794602431
 30
0.0
 42
-0.0755909931739123
  0
VERTEX
  5
191
  8
SignTorch_BIRD116_
 10
9.12832443073061
 20
5.174932952880859
 30
0.0
 42
-0.0135910106946291
  0
VERTEX
  5
192
  8
SignTorch_BIRD116_
 10
9.1737663429208
 20
5.070112760898589
 30
0.0
 42
0.0138256387157111
  0
VERTEX
  5
193
  8
SignTorch_BIRD116_
 10
9.355730680730607
 20
4.65091732788086
 30
0.0
 42
-0.0158910667749493
  0
VERTEX
  5
194
  8
SignTorch_BIRD116_
 10
9.485791673973925
 20
4.347872417037186
 30
0.0
 42
-0.0889856780268893
  0
VERTEX
  5
195
  8
SignTorch_BIRD116_
 10
9.497355680730607
 20
4.28966732788086
 30
0.0
 42
-0.2255151370167577
  0
VERTEX
  5
196
  8
SignTorch_BIRD116_
 10
9.480406958313642
 20
4.252217492646709
 30
0.0
 42
0.033704680654425
  0
VERTEX
  5
197
  8
SignTorch_BIRD116_
 10
9.363980680730608
 20
4.139417327880859
 30
0.0
 42
-0.0359823009130288
  0
VERTEX
  5
198
  8
SignTorch_BIRD116_
 10
9.259540594590995
 20
4.039147213885372
 30
0.0
 42
0.1054565587163216
  0
VERTEX
  5
199
  8
SignTorch_BIRD116_
 10
9.237090055730608
 20
4.010667327880859
 30
0.0
 42
0.4145701325631988
  0
VERTEX
  5
19A
  8
SignTorch_BIRD116_
 10
9.248755109141834
 20
3.976452912589135
 30
0.0
 42
0.1235352733870428
  0
VERTEX
  5
19B
  8
SignTorch_BIRD116_
 10
9.458480680730608
 20
3.931667327880859
 30
0.0
 42
0.0308923838733851
  0
VERTEX
  5
19C
  8
SignTorch_BIRD116_
 10
9.550372515059946
 20
3.940628041462878
 30
0.0
 42
-0.3545473309766919
  0
VERTEX
  5
19D
  8
SignTorch_BIRD116_
 10
9.606142790105608
 20
3.908513031005859
 30
0.0
 42
-0.0592373348958626
  0
VERTEX
  5
19E
  8
SignTorch_BIRD116_
 10
9.615568923410324
 20
3.871372866757238
 30
0.0
 42
-0.0122402552436887
  0
VERTEX
  5
19F
  8
SignTorch_BIRD116_
 10
9.655230680730607
 20
3.497667327880859
 30
0.0
 42
-0.0037270889960873
  0
VERTEX
  5
1A0
  8
SignTorch_BIRD116_
 10
9.679497713508328
 20
3.169450966221789
 30
0.0
 42
-0.0044729400841284
  0
SEQEND
  5
1A1
  8
SignTorch_BIRD116_
  0
POLYLINE
  5
49
  8
SignTorch_BIRD116_
 66
     1
 10
0.0
 20
0.0
 30
0.0
 70
     1
  0
VERTEX
  5
1A2
  8
SignTorch_BIRD116_
 10
9.505730680730608
 20
1.620792327880859
 30
0.0
 42
0.0137782505696752
  0
VERTEX
  5
1A3
  8
SignTorch_BIRD116_
 10
9.522925724046406
 20
1.493894396764993
 30
0.0
 42
-0.033502679610592
  0
VERTEX
  5
1A4
  8
SignTorch_BIRD116_
 10
9.535105680730608
 20
1.366417327880859
 30
0.0
 42
-0.0977857079156776
  0
VERTEX
  5
1A5
  8
SignTorch_BIRD116_
 10
9.53063184066007
 20
1.339824622856892
 30
0.0
 42
-0.4732924189883976
  0
VERTEX
  5
1A6
  8
SignTorch_BIRD116_
 10
9.524230680730609
 20
1.337667327880859
 30
0.0
 42
-0.1809352443307841
  0
VERTEX
  5
1A7
  8
SignTorch_BIRD116_
 10
9.50920701497991
 20
1.35727683687541
 30
0.0
 42
0.0431921804636579
  0
VERTEX
  5
1A8
  8
SignTorch_BIRD116_
 10
9.499996305730608
 20
1.380198577880859
 30
0.0
 42
-0.0298600410543699
  0
VERTEX
  5
1A9
  8
SignTorch_BIRD116_
 10
9.451866435956143
 20
1.491326602688754
 30
0.0
 42
0.0276371566479323
  0
VERTEX
  5
1AA
  8
SignTorch_BIRD116_
 10
9.404230680730608
 20
1.602667327880859
 30
0.0
 42
0.0152433054856169
  0
VERTEX
  5
1AB
  8
SignTorch_BIRD116_
 10
9.385175903459304
 20
1.638389969250795
 30
0.0
 42
0.0029188783494999
  0
VERTEX
  5
1AC
  8
SignTorch_BIRD116_
 10
9.278980680730609
 20
1.821167327880859
 30
0.0
 42
0.0074850701477539
  0
VERTEX
  5
1AD
  8
SignTorch_BIRD116_
 10
9.152359001512867
 20
2.029021566421365
 30
0.0
 42
0.0221738300806212
  0
VERTEX
  5
1AE
  8
SignTorch_BIRD116_
 10
9.105511930730607
 20
2.096557952880859
 30
0.0
 42
-0.0428055172903856
  0
VERTEX
  5
1AF
  8
SignTorch_BIRD116_
 10
9.05201537862599
 20
2.180901450007347
 30
0.0
 42
-0.124840087602422
  0
VERTEX
  5
1B0
  8
SignTorch_BIRD116_
 10
9.033230680730608
 20
2.26066732788086
 30
0.0
 42
-0.008093879066269
  0
VERTEX
  5
1B1
  8
SignTorch_BIRD116_
 10
9.039330638124698
 20
2.44378856802472
 30
0.0
 42
0.0230571750180804
  0
VERTEX
  5
1B2
  8
SignTorch_BIRD116_
 10
9.040480680730608
 20
2.78404232788086
 30
0.0
 42
-0.0494635203260507
  0
VERTEX
  5
1B3
  8
SignTorch_BIRD116_
 10
9.043007558728371
 20
2.829021191031375
 30
0.0
 42
-0.5898304801369946
  0
VERTEX
  5
1B4
  8
SignTorch_BIRD116_
 10
9.064980680730608
 20
2.837042327880859
 30
0.0
 42
-0.0420469626593707
  0
VERTEX
  5
1B5
  8
SignTorch_BIRD116_
 10
9.070758623310754
 20
2.831094941747544
 30
0.0
 42
-0.0244801546270119
  0
VERTEX
  5
1B6
  8
SignTorch_BIRD116_
 10
9.079230680730607
 20
2.819667327880859
 30
0.0
 42
-0.0303189797807703
  0
VERTEX
  5
1B7
  8
SignTorch_BIRD116_
 10
9.139018927940588
 20
2.717245865706102
 30
0.0
 42
0.001640990512446
  0
VERTEX
  5
1B8
  8
SignTorch_BIRD116_
 10
9.354230680730609
 20
2.294667327880859
 30
0.0
 42
0.0102469599223624
  0
VERTEX
  5
1B9
  8
SignTorch_BIRD116_
 10
9.427204301580264
 20
2.159430000740277
 30
0.0
 42
-0.0656965837713681
  0
VERTEX
  5
1BA
  8
SignTorch_BIRD116_
 10
9.458230680730608
 20
2.08266732788086
 30
0.0
 42
-0.0489078435601608
  0
VERTEX
  5
1BB
  8
SignTorch_BIRD116_
 10
9.471622664293998
 20
1.997054281578111
 30
0.0
 42
0.0105100501587365
  0
VERTEX
  5
1BC
  8
SignTorch_BIRD116_
 10
9.484230680730606
 20
1.836667327880859
 30
0.0
 42
-0.0010578194654389
  0
VERTEX
  5
1BD
  8
SignTorch_BIRD116_
 10
9.494773983069905
 20
1.728709241894964
 30
0.0
 42
0.0029728009195757
  0
SEQEND
  5
1BE
  8
SignTorch_BIRD116_
  0
POLYLINE
  5
4A
  8
SignTorch_BIRD116_
 66
     1
 10
0.0
 20
0.0
 30
0.0
 70
     1
  0
VERTEX
  5
1BF
  8
SignTorch_BIRD116_
 10
9.582230680730607
 20
1.990667327880859
 30
0.0
 42
0.0011683407815792
  0
VERTEX
  5
1C0
  8
SignTorch_BIRD116_
 10
9.571219990681383
 20
2.065645601042081
 30
0.0
 42
-0.5390062798394466
  0
VERTEX
  5
1C1
  8
SignTorch_BIRD116_
 10
9.592605680730609
 20
2.08479232788086
 30
0.0
 42
-0.0555263272714116
  0
VERTEX
  5
1C2
  8
SignTorch_BIRD116_
 10
9.620405402233704
 20
2.07402741150664
 30
0.0
 42
-0.0230210048983522
  0
VERTEX
  5
1C3
  8
SignTorch_BIRD116_
 10
9.682416227605607
 20
2.037991546630859
 30
0.0
 42
-0.2310848733445088
  0
VERTEX
  5
1C4
  8
SignTorch_BIRD116_
 10
9.706843788087088
 20
1.997620380760994
 30
0.0
 42
-0.0424843972229753
  0
VERTEX
  5
1C5
  8
SignTorch_BIRD116_
 10
9.707230680730607
 20
1.920667327880859
 30
0.0
 42
0.008031506904625
  0
VERTEX
  5
1C6
  8
SignTorch_BIRD116_
 10
9.687721781275773
 20
1.615431928944982
 30
0.0
 42
0.01127766245801
  0
VERTEX
  5
1C7
  8
SignTorch_BIRD116_
 10
9.682230680730608
 20
1.397667327880859
 30
0.0
 42
0.0196040456850878
  0
VERTEX
  5
1C8
  8
SignTorch_BIRD116_
 10
9.684978682221217
 20
1.322509953869612
 30
0.0
 42
-0.1429211596265852
  0
VERTEX
  5
1C9
  8
SignTorch_BIRD116_
 10
9.67658419635561
 20
1.282768890380859
 30
0.0
 42
-0.6049301246920366
  0
VERTEX
  5
1CA
  8
SignTorch_BIRD116_
 10
9.665589790822748
 20
1.282871868803032
 30
0.0
 42
-0.0875785690309573
  0
VERTEX
  5
1CB
  8
SignTorch_BIRD116_
 10
9.649105680730608
 20
1.336417327880859
 30
0.0
 42
-0.0149446381564459
  0
VERTEX
  5
1CC
  8
SignTorch_BIRD116_
 10
9.636753554440697
 20
1.467369863158317
 30
0.0
 42
0.019830841227184
  0
SEQEND
  5
1CD
  8
SignTorch_BIRD116_
  0
POLYLINE
  5
4B
  8
SignTorch_BIRD116_
 66
     1
 10
0.0
 20
0.0
 30
0.0
 70
     1
  0
VERTEX
  5
1CE
  8
SignTorch_BIRD116_
 10
9.795230680730608
 20
0.8546673278808594
 30
0.0
 42
-0.0051608808418629
  0
VERTEX
  5
1CF
  8
SignTorch_BIRD116_
 10
9.815875958250826
 20
1.462065116012073
 30
0.0
 42
-0.0071820284663602
  0
VERTEX
  5
1D0
  8
SignTorch_BIRD116_
 10
9.841480680730609
 20
1.898042327880859
 30
0.0
 42
-0.0468700022433212
  0
VERTEX
  5
1D1
  8
SignTorch_BIRD116_
 10
9.850803822834797
 20
1.953451865137306
 30
0.0
 42
-0.1943959390268689
  0
VERTEX
  5
1D2
  8
SignTorch_BIRD116_
 10
9.859230680730606
 20
1.964667327880859
 30
0.0
 42
-0.1567354198472311
  0
VERTEX
  5
1D3
  8
SignTorch_BIRD116_
 10
9.888640988044003
 20
1.97159952499004
 30
0.0
 42
0.1490678488398993
  0
VERTEX
  5
1D4
  8
SignTorch_BIRD116_
 10
10.00668185260561
 20
1.997561859130859
 30
0.0
 42
0.1050452138346395
  0
VERTEX
  5
1D5
  8
SignTorch_BIRD116_
 10
10.03607149961601
 20
2.023431048407781
 30
0.0
 42
0.3512042689216155
  0
VERTEX
  5
1D6
  8
SignTorch_BIRD116_
 10
10.03497091510561
 20
2.05416342163086
 30
0.0
 42
0.072099036683964
  0
VERTEX
  5
1D7
  8
SignTorch_BIRD116_
 10
10.00031284160991
 20
2.084289474352179
 30
0.0
 42
-0.0925655055127156
  0
VERTEX
  5
1D8
  8
SignTorch_BIRD116_
 10
9.866715055730607
 20
2.210307952880859
 30
0.0
 42
-0.1531808553101161
  0
VERTEX
  5
1D9
  8
SignTorch_BIRD116_
 10
9.839472092799955
 20
2.290898914431713
 30
0.0
 42
0.0128320670821538
  0
VERTEX
  5
1DA
  8
SignTorch_BIRD116_
 10
9.823390836980607
 20
2.628169281005859
 30
0.0
 42
-0.0147174305937997
  0
VERTEX
  5
1DB
  8
SignTorch_BIRD116_
 10
9.801464245148813
 20
3.12760549852972
 30
0.0
 42
0.0220377679222605
  0
VERTEX
  5
1DC
  8
SignTorch_BIRD116_
 10
9.772230680730608
 20
3.62666732788086
 30
0.0
 42
-0.0104199704532248
  0
VERTEX
  5
1DD
  8
SignTorch_BIRD116_
 10
9.7507673684394
 20
3.888664493861168
 30
0.0
 42
-0.0415574103299835
  0
VERTEX
  5
1DE
  8
SignTorch_BIRD116_
 10
9.752230680730607
 20
3.954667327880859
 30
0.0
 42
-0.2934498367205321
  0
VERTEX
  5
1DF
  8
SignTorch_BIRD116_
 10
9.794017505219703
 20
4.006754808738436
 30
0.0
 42
0.230520187074202
  0
VERTEX
  5
1E0
  8
SignTorch_BIRD116_
 10
9.88238693073061
 20
4.09364193725586
 30
0.0
 42
0.1785495711666577
  0
VERTEX
  5
1E1
  8
SignTorch_BIRD116_
 10
9.880938190027674
 20
4.208212557098114
 30
0.0
 42
0.1889070060205312
  0
VERTEX
  5
1E2
  8
SignTorch_BIRD116_
 10
9.757496305730609
 20
4.34355795288086
 30
0.0
 42
0.2023727261244142
  0
VERTEX
  5
1E3
  8
SignTorch_BIRD116_
 10
9.636261218618667
 20
4.350670160035729
 30
0.0
 42
-0.1379321838832268
  0
VERTEX
  5
1E4
  8
SignTorch_BIRD116_
 10
9.605920133855607
 20
4.34864584350586
 30
0.0
 42
-0.2105618801931148
  0
VERTEX
  5
1E5
  8
SignTorch_BIRD116_
 10
9.600063881938597
 20
4.352849484135524
 30
0.0
 42
-0.0323366404649472
  0
VERTEX
  5
1E6
  8
SignTorch_BIRD116_
 10
9.579746305730607
 20
4.392995452880859
 30
0.0
 42
0.0026385961219934
  0
VERTEX
  5
1E7
  8
SignTorch_BIRD116_
 10
9.396871947662284
 20
4.814749172201735
 30
0.0
 42
0.0094971427421781
  0
VERTEX
  5
1E8
  8
SignTorch_BIRD116_
 10
9.343230680730606
 20
4.930667327880859
 30
0.0
 42
-0.0800515978717147
  0
VERTEX
  5
1E9
  8
SignTorch_BIRD116_
 10
9.310569566803435
 20
5.03907218286965
 30
0.0
 42
-0.0969456677182872
  0
VERTEX
  5
1EA
  8
SignTorch_BIRD116_
 10
9.316230680730607
 20
5.13266732788086
 30
0.0
 42
-0.3790025049241769
  0
VERTEX
  5
1EB
  8
SignTorch_BIRD116_
 10
9.369797732337414
 20
5.168731411788988
 30
0.0
 42
0.1536641222664532
  0
VERTEX
  5
1EC
  8
SignTorch_BIRD116_
 10
9.486896696355608
 20
5.18918685913086
 30
0.0
 42
0.1655365318586182
  0
VERTEX
  5
1ED
  8
SignTorch_BIRD116_
 10
9.558355441701679
 20
5.263649490829715
 30
0.0
 42
0.0986028020187862
  0
VERTEX
  5
1EE
  8
SignTorch_BIRD116_
 10
9.598855680730606
 20
5.429042327880859
 30
0.0
 42
0.0257710152998872
  0
VERTEX
  5
1EF
  8
SignTorch_BIRD116_
 10
9.59789434099627
 20
5.549911842568237
 30
0.0
 42
-0.0518697128612683
  0
VERTEX
  5
1F0
  8
SignTorch_BIRD116_
 10
9.603230680730606
 20
5.670667327880859
 30
0.0
 42
-0.0276794711987036
  0
VERTEX
  5
1F1
  8
SignTorch_BIRD116_
 10
9.615319619741491
 20
5.729352738435622
 30
0.0
 42
0.0088759480281612
  0
VERTEX
  5
1F2
  8
SignTorch_BIRD116_
 10
9.629605680730608
 20
5.78754232788086
 30
0.0
 42
0.0214325434549852
  0
VERTEX
  5
1F3
  8
SignTorch_BIRD116_
 10
9.644977167446305
 20
5.87194937877622
 30
0.0
 42
0.4312772175591504
  0
VERTEX
  5
1F4
  8
SignTorch_BIRD116_
 10
9.63049630573061
 20
5.88996420288086
 30
0.0
 42
0.1244396009794713
  0
VERTEX
  5
1F5
  8
SignTorch_BIRD116_
 10
9.582544695861651
 20
5.881820177233476
 30
0.0
 42
0.029630432983646
  0
VERTEX
  5
1F6
  8
SignTorch_BIRD116_
 10
9.403511930730607
 20
5.78972982788086
 30
0.0
 42
0.0793696808926711
  0
VERTEX
  5
1F7
  8
SignTorch_BIRD116_
 10
9.256479765743444
 20
5.667701577232677
 30
0.0
 42
0.1344270957413277
  0
VERTEX
  5
1F8
  8
SignTorch_BIRD116_
 10
9.160230680730608
 20
5.469667327880859
 30
0.0
 42
0.0106265293828142
  0
VERTEX
  5
1F9
  8
SignTorch_BIRD116_
 10
9.151818247484846
 20
5.418800757562281
 30
0.0
 42
-0.6511989006799603
  0
VERTEX
  5
1FA
  8
SignTorch_BIRD116_
 10
9.137652555730607
 20
5.41482357788086
 30
0.0
 42
-0.0935320573344867
  0
VERTEX
  5
1FB
  8
SignTorch_BIRD116_
 10
9.12096843008591
 20
5.445107331261774
 30
0.0
 42
-0.0169475049069915
  0
VERTEX
  5
1FC
  8
SignTorch_BIRD116_
 10
9.068105680730607
 20
5.626792327880858
 30
0.0
 42
-0.0053980597101514
  0
VERTEX
  5
1FD
  8
SignTorch_BIRD116_
 10
8.962798696045157
 20
6.060015293396622
 30
0.0
 42
-0.0824166905840232
  0
VERTEX
  5
1FE
  8
SignTorch_BIRD116_
 10
8.935230680730607
 20
6.495667327880859
 30
0.0
 42
-0.0126309429006143
  0
VERTEX
  5
1FF
  8
SignTorch_BIRD116_
 10
8.992783352749885
 20
6.948103629421484
 30
0.0
 42
-0.0782614030277489
  0
VERTEX
  5
200
  8
SignTorch_BIRD116_
 10
9.015230680730607
 20
7.018667327880859
 30
0.0
 42
-0.0730707943998563
  0
VERTEX
  5
201
  8
SignTorch_BIRD116_
 10
9.051588444504349
 20
7.070678662249369
 30
0.0
 42
-0.3179375283746134
  0
VERTEX
  5
202
  8
SignTorch_BIRD116_
 10
9.067246305730608
 20
7.073839202880858
 30
0.0
 42
-0.0874395698208427
  0
VERTEX
  5
203
  8
SignTorch_BIRD116_
 10
9.094389960938786
 20
7.055628688051462
 30
0.0
 42
-0.0001746388376638
  0
VERTEX
  5
204
  8
SignTorch_BIRD116_
 10
9.188355680730607
 20
6.965292327880858
 30
0.0
 42
-0.074890508921742
  0
VERTEX
  5
205
  8
SignTorch_BIRD116_
 10
9.258349850342368
 20
6.874213476421951
 30
0.0
 42
0.5450311660430678
  0
VERTEX
  5
206
  8
SignTorch_BIRD116_
 10
9.322355680730606
 20
6.869917327880859
 30
0.0
 42
0.0575768702011818
  0
VERTEX
  5
207
  8
SignTorch_BIRD116_
 10
9.353181129151338
 20
6.923166962665544
 30
0.0
 42
0.0340237316351884
  0
VERTEX
  5
208
  8
SignTorch_BIRD116_
 10
9.387996305730608
 20
7.021057952880859
 30
0.0
 42
0.1199062812183169
  0
VERTEX
  5
209
  8
SignTorch_BIRD116_
 10
9.391391693861557
 20
7.118009283176233
 30
0.0
 42
0.2495307314545147
  0
VERTEX
  5
20A
  8
SignTorch_BIRD116_
 10
9.284793180730606
 20
7.246448577880859
 30
0.0
 42
0.1537038592408438
  0
VERTEX
  5
20B
  8
SignTorch_BIRD116_
 10
9.105441880565184
 20
7.261542771948229
 30
0.0
 42
0.2612011331312896
  0
VERTEX
  5
20C
  8
SignTorch_BIRD116_
 10
9.023230680730608
 20
7.18766732788086
 30
0.0
 42
-0.0459943901700459
  0
VERTEX
  5
20D
  8
SignTorch_BIRD116_
 10
8.96901262284889
 20
7.066157049352651
 30
0.0
 42
-0.2518683984423736
  0
VERTEX
  5
20E
  8
SignTorch_BIRD116_
 10
8.953595915105607
 20
7.056368499755859
 30
0.0
 42
-0.336264683235714
  0
VERTEX
  5
20F
  8
SignTorch_BIRD116_
 10
8.939471902242163
 20
7.065552351103734
 30
0.0
 42
0.0315722766977915
  0
VERTEX
  5
210
  8
SignTorch_BIRD116_
 10
8.913605680730607
 20
7.125292327880858
 30
0.0
 42
0.0810574057688943
  0
VERTEX
  5
211
  8
SignTorch_BIRD116_
 10
8.813976062705692
 20
7.260938495994234
 30
0.0
 42
0.0909954804037134
  0
VERTEX
  5
212
  8
SignTorch_BIRD116_
 10
8.689527555730608
 20
7.344995452880858
 30
0.0
 42
-0.0637765907826884
  0
VERTEX
  5
213
  8
SignTorch_BIRD116_
 10
8.638321373895598
 20
7.37568566859872
 30
0.0
 42
-0.1221296929336054
  0
VERTEX
  5
214
  8
SignTorch_BIRD116_
 10
8.618990446355607
 20
7.400571624755859
 30
0.0
 42
-0.172930756505317
  0
VERTEX
  5
215
  8
SignTorch_BIRD116_
 10
8.607861968973998
 20
7.548888545727885
 30
0.0
 42
0.0817142875281464
  0
VERTEX
  5
216
  8
SignTorch_BIRD116_
 10
8.616230680730608
 20
7.628667327880859
 30
0.0
 42
0.1011646283034984
  0
VERTEX
  5
217
  8
SignTorch_BIRD116_
 10
8.609634842951316
 20
7.653442476604491
 30
0.0
 42
0.3820523081408351
  0
VERTEX
  5
218
  8
SignTorch_BIRD116_
 10
8.602480680730608
 20
7.656292327880859
 30
0.0
 42
0.3193361769284168
  0
VERTEX
  5
219
  8
SignTorch_BIRD116_
 10
8.581761814824851
 20
7.626124233230931
 30
0.0
 42
-0.0773360370710004
  0
VERTEX
  5
21A
  8
SignTorch_BIRD116_
 10
8.576728727605609
 20
7.589874359130858
 30
0.0
 42
-0.1710987992474016
  0
VERTEX
  5
21B
  8
SignTorch_BIRD116_
 10
8.565162915837776
 20
7.574052888848152
 30
0.0
 42
-0.4282567293861064
  0
VERTEX
  5
21C
  8
SignTorch_BIRD116_
 10
8.556355680730608
 20
7.575917327880859
 30
0.0
 42
-0.0470218210097379
  0
VERTEX
  5
21D
  8
SignTorch_BIRD116_
 10
8.540401670503996
 20
7.608203144851186
 30
0.0
 42
-0.0185503873937842
  0
VERTEX
  5
21E
  8
SignTorch_BIRD116_
 10
8.511058805730608
 20
7.694464202880859
 30
0.0
 42
-0.0961493779932764
  0
VERTEX
  5
21F
  8
SignTorch_BIRD116_
 10
8.5044487450014
 20
7.760960731238884
 30
0.0
 42
-0.4332626562965055
  0
VERTEX
  5
220
  8
SignTorch_BIRD116_
 10
8.518230680730609
 20
7.771667327880857
 30
0.0
 42
-0.0159014590261133
  0
VERTEX
  5
221
  8
SignTorch_BIRD116_
 10
8.58423462089689
 20
7.759040009024963
 30
0.0
 42
0.489547279887133
  0
VERTEX
  5
222
  8
SignTorch_BIRD116_
 10
8.625933805730607
 20
7.793432952880858
 30
0.0
 42
0.0767562730870251
  0
VERTEX
  5
223
  8
SignTorch_BIRD116_
 10
8.622322344476235
 20
7.812991719256227
 30
0.0
 42
-0.2460705520468178
  0
VERTEX
  5
224
  8
SignTorch_BIRD116_
 10
8.625230680730608
 20
7.832667327880858
 30
0.0
 42
-0.0938094354025069
  0
VERTEX
  5
225
  8
SignTorch_BIRD116_
 10
8.667344230791528
 20
7.872249240723787
 30
0.0
 42
0.255883048041439
  0
VERTEX
  5
226
  8
SignTorch_BIRD116_
 10
8.695175993230608
 20
7.922901702880857
 30
0.0
 42
0.4800608270870185
  0
VERTEX
  5
227
  8
SignTorch_BIRD116_
 10
8.649676932134222
 20
7.959475374826549
 30
0.0
 42
-0.0134071523040235
  0
VERTEX
  5
228
  8
SignTorch_BIRD116_
 10
8.579168180730607
 20
7.945823577880859
 30
0.0
 42
-0.1725392537482689
  0
VERTEX
  5
229
  8
SignTorch_BIRD116_
 10
8.535506359388192
 20
7.953645831346162
 30
0.0
 42
0.3198116003767746
  0
VERTEX
  5
22A
  8
SignTorch_BIRD116_
 10
8.491371305730606
 20
7.949214202880858
 30
0.0
 42
0.0979889881755334
  0
VERTEX
  5
22B
  8
SignTorch_BIRD116_
 10
8.454508267542405
 20
7.901352408251091
 30
0.0
 42
-0.0416512314598499
  0
VERTEX
  5
22C
  8
SignTorch_BIRD116_
 10
8.423230680730608
 20
7.849667327880859
 30
0.0
 42
0.2782095533976219
  0
VERTEX
  5
22D
  8
SignTorch_BIRD116_
 10
8.417193770977299
 20
7.778615922952518
 30
0.0
 42
-0.0409686832955785
  0
VERTEX
  5
22E
  8
SignTorch_BIRD116_
 10
8.519730680730609
 20
7.518917327880859
 30
0.0
 42
0.0228796358348167
  0
VERTEX
  5
22F
  8
SignTorch_BIRD116_
 10
8.541245420929581
 20
7.458076986204124
 30
0.0
 42
-0.0997506953592513
  0
VERTEX
  5
230
  8
SignTorch_BIRD116_
 10
8.553230680730609
 20
7.394667327880859
 30
0.0
 42
-0.3338151222882942
  0
VERTEX
  5
231
  8
SignTorch_BIRD116_
 10
8.543326339862704
 20
7.381810500663778
 30
0.0
 42
-0.0471118269884103
  0
VERTEX
  5
232
  8
SignTorch_BIRD116_
 10
8.441230680730607
 20
7.363667327880858
 30
0.0
 42
-0.2564041206988928
  0
VERTEX
  5
233
  8
SignTorch_BIRD116_
 10
8.410627989108024
 20
7.377343793385808
 30
0.0
 42
-0.0029405685213786
  0
VERTEX
  5
234
  8
SignTorch_BIRD116_
 10
8.357230680730607
 20
7.448667327880858
 30
0.0
 42
0.0237257632476777
  0
VERTEX
  5
235
  8
SignTorch_BIRD116_
 10
8.15155299796784
 20
7.700833789698451
 30
0.0
 42
-0.1524099597259055
  0
VERTEX
  5
236
  8
SignTorch_BIRD116_
 10
8.117480680730608
 20
7.775292327880859
 30
0.0
 42
-0.036771516459766
  0
VERTEX
  5
237
  8
SignTorch_BIRD116_
 10
8.109774979257958
 20
7.920122144931531
 30
0.0
 42
-0.0403099552036604
  0
VERTEX
  5
238
  8
SignTorch_BIRD116_
 10
8.132949430730608
 20
8.148948577880857
 30
0.0
 42
-0.0718304049067899
  0
VERTEX
  5
239
  8
SignTorch_BIRD116_
 10
8.15897466724524
 20
8.226206716705214
 30
0.0
 42
-0.19906652550945
  0
VERTEX
  5
23A
  8
SignTorch_BIRD116_
 10
8.182058805730607
 20
8.246026702880858
 30
0.0
 42
0.0226020261604892
  0
VERTEX
  5
23B
  8
SignTorch_BIRD116_
 10
8.265920562459028
 20
8.277752019385536
 30
0.0
 42
0.2643153609516488
  0
VERTEX
  5
23C
  8
SignTorch_BIRD116_
 10
8.321006071355608
 20
8.35064779663086
 30
0.0
 42
0.4090591908937577
  0
VERTEX
  5
23D
  8
SignTorch_BIRD116_
 10
8.302337189949306
 20
8.375396487161906
 30
0.0
 42
-0.3336586742453749
  0
VERTEX
  5
23E
  8
SignTorch_BIRD116_
 10
8.261933805730607
 20
8.41633920288086
 30
0.0
 42
0.0102845804778964
  0
VERTEX
  5
23F
  8
SignTorch_BIRD116_
 10
8.252410706397859
 20
8.4771860243736
 30
0.0
 42
0.3253907446045938
  0
VERTEX
  5
240
  8
SignTorch_BIRD116_
 10
8.234230680730608
 20
8.494667327880858
 30
0.0
 42
0.3232150842212428
  0
VERTEX
  5
241
  8
SignTorch_BIRD116_
 10
8.16884786325799
 20
8.459910694963414
 30
0.0
 42
-0.2322949936406004
  0
VERTEX
  5
242
  8
SignTorch_BIRD116_
 10
8.110230680730607
 20
8.414667327880858
 30
0.0
 42
0.3381606438537125
  0
VERTEX
  5
243
  8
SignTorch_BIRD116_
 10
8.08224776336643
 20
8.382618805126313
 30
0.0
 42
0.1228818846375013
  0
VERTEX
  5
244
  8
SignTorch_BIRD116_
 10
8.101230680730607
 20
8.277667327880858
 30
0.0
 42
-0.1897425724066272
  0
VERTEX
  5
245
  8
SignTorch_BIRD116_
 10
8.104124846952423
 20
8.21797843766329
 30
0.0
 42
0.0643038541186796
  0
VERTEX
  5
246
  8
SignTorch_BIRD116_
 10
8.057355680730607
 20
7.985042327880858
 30
0.0
 42
0.0391968364305726
  0
VERTEX
  5
247
  8
SignTorch_BIRD116_
 10
8.058241071075157
 20
7.88254481421619
 30
0.0
 42
-0.090019114667329
  0
VERTEX
  5
248
  8
SignTorch_BIRD116_
 10
8.053136930730608
 20
7.82755990600586
 30
0.0
 42
-0.5892286042364182
  0
VERTEX
  5
249
  8
SignTorch_BIRD116_
 10
8.032089679574202
 20
7.822548373243658
 30
0.0
 42
0.0217062406887025
  0
VERTEX
  5
24A
  8
SignTorch_BIRD116_
 10
7.977230680730608
 20
7.877667327880858
 30
0.0
 42
-0.0368120197749057
  0
VERTEX
  5
24B
  8
SignTorch_BIRD116_
 10
7.926154700972346
 20
7.932181354991388
 30
0.0
 42
-0.1621616683646419
  0
VERTEX
  5
24C
  8
SignTorch_BIRD116_
 10
7.908730680730608
 20
7.978792327880859
 30
0.0
 42
0.0455847766628965
  0
VERTEX
  5
24D
  8
SignTorch_BIRD116_
 10
7.892148031968272
 20
8.108335828529455
 30
0.0
 42
0.0535795802923338
  0
VERTEX
  5
24E
  8
SignTorch_BIRD116_
 10
7.856590055730607
 20
8.213698577880859
 30
0.0
 42
-0.0683283770454451
  0
VERTEX
  5
24F
  8
SignTorch_BIRD116_
 10
7.844892636014317
 20
8.252043390169646
 30
0.0
 42
-0.0612867063919611
  0
VERTEX
  5
250
  8
SignTorch_BIRD116_
 10
7.843230680730606
 20
8.296667327880858
 30
0.0
 42
0.2070321879052744
  0
VERTEX
  5
251
  8
SignTorch_BIRD116_
 10
7.807063866570966
 20
8.40468090716802
 30
0.0
 42
0.2961488511382145
  0
VERTEX
  5
252
  8
SignTorch_BIRD116_
 10
7.755230680730608
 20
8.418667327880858
 30
0.0
 42
-0.1186385014662442
  0
VERTEX
  5
253
  8
SignTorch_BIRD116_
 10
7.727582129890791
 20
8.416558967335272
 30
0.0
 42
-0.1248069827972108
  0
VERTEX
  5
254
  8
SignTorch_BIRD116_
 10
7.703355680730608
 20
8.427042327880859
 30
0.0
 42
0.0255103160233226
  0
VERTEX
  5
255
  8
SignTorch_BIRD116_
 10
7.676803857564735
 20
8.44543104421071
 30
0.0
 42
0.5728174330609824
  0
VERTEX
  5
256
  8
SignTorch_BIRD116_
 10
7.649574430730608
 20
8.431057952880858
 30
0.0
 42
0.1024365178356914
  0
VERTEX
  5
257
  8
SignTorch_BIRD116_
 10
7.658509222777046
 20
8.375491209457484
 30
0.0
 42
-0.0678955222024663
  0
VERTEX
  5
258
  8
SignTorch_BIRD116_
 10
7.671230680730608
 20
8.320667327880859
 30
0.0
 42
0.0612098443295742
  0
VERTEX
  5
259
  8
SignTorch_BIRD116_
 10
7.685630155406989
 20
8.254630407426413
 30
0.0
 42
0.1519941107704262
  0
VERTEX
  5
25A
  8
SignTorch_BIRD116_
 10
7.702168180730607
 20
8.232354827880858
 30
0.0
 42
0.2102981869191901
  0
VERTEX
  5
25B
  8
SignTorch_BIRD116_
 10
7.779288330899754
 20
8.215439037744838
 30
0.0
 42
-0.3475328078575568
  0
VERTEX
  5
25C
  8
SignTorch_BIRD116_
 10
7.817308805730607
 20
8.196110687255857
 30
0.0
 42
-0.0469420370386705
  0
VERTEX
  5
25D
  8
SignTorch_BIRD116_
 10
7.833756701126526
 20
8.149272566796672
 30
0.0
 42
-0.0193636256397719
  0
VERTEX
  5
25E
  8
SignTorch_BIRD116_
 10
7.858230680730607
 20
8.031667327880857
 30
0.0
 42
-0.0986722168244556
  0
VERTEX
  5
25F
  8
SignTorch_BIRD116_
 10
7.857406682963493
 20
8.004441141716196
 30
0.0
 42
-0.463427680541828
  0
VERTEX
  5
260
  8
SignTorch_BIRD116_
 10
7.840793180730608
 20
7.995878265380859
 30
0.0
 42
-0.0953804081510978
  0
VERTEX
  5
261
  8
SignTorch_BIRD116_
 10
7.79226122995776
 20
8.02782831149765
 30
0.0
 42
0.1613103920512116
  0
VERTEX
  5
262
  8
SignTorch_BIRD116_
 10
7.583588102605607
 20
8.12928060913086
 30
0.0
 42
0.119035448389872
  0
VERTEX
  5
263
  8
SignTorch_BIRD116_
 10
7.447874159155345
 20
8.115075157163385
 30
0.0
 42
0.1529569119675795
  0
VERTEX
  5
264
  8
SignTorch_BIRD116_
 10
7.362230680730607
 20
8.05066732788086
 30
0.0
 42
-0.0627735437200559
  0
VERTEX
  5
265
  8
SignTorch_BIRD116_
 10
7.310642008804572
 20
7.995046811967917
 30
0.0
 42
0.1953756128569775
  0
VERTEX
  5
266
  8
SignTorch_BIRD116_
 10
7.244896696355608
 20
7.870981781005858
 30
0.0
 42
0.2776690485745339
  0
VERTEX
  5
267
  8
SignTorch_BIRD116_
 10
7.262007330156848
 20
7.834663026333054
 30
0.0
 42
-0.3048500672515071
  0
VERTEX
  5
268
  8
SignTorch_BIRD116_
 10
7.270230680730609
 20
7.814667327880858
 30
0.0
 42
-0.0374922997963465
  0
VERTEX
  5
269
  8
SignTorch_BIRD116_
 10
7.240064219447245
 20
7.708392536571802
 30
0.0
 42
0.060673987723515
  0
VERTEX
  5
26A
  8
SignTorch_BIRD116_
 10
7.193230680730608
 20
7.508667327880858
 30
0.0
 42
-0.0179344100843584
  0
VERTEX
  5
26B
  8
SignTorch_BIRD116_
 10
7.176125808303767
 20
7.391525715982842
 30
0.0
 42
-0.0355703279881134
  0
VERTEX
  5
26C
  8
SignTorch_BIRD116_
 10
7.161230680730608
 20
7.333667327880859
 30
0.0
 42
0.1111558806925459
  0
VERTEX
  5
26D
  8
SignTorch_BIRD116_
 10
7.155800424995316
 20
7.280444834506212
 30
0.0
 42
0.348901640373968
  0
VERTEX
  5
26E
  8
SignTorch_BIRD116_
 10
7.169230680730608
 20
7.267167327880859
 30
0.0
 42
0.1655651279520206
  0
VERTEX
  5
26F
  8
SignTorch_BIRD116_
 10
7.199376318941856
 20
7.273904251566998
 30
0.0
 42
-0.629917857472188
  0
VERTEX
  5
270
  8
SignTorch_BIRD116_
 10
7.225277555730608
 20
7.257073577880859
 30
0.0
 42
-0.1042115305654353
  0
VERTEX
  5
271
  8
SignTorch_BIRD116_
 10
7.195084118054623
 20
7.170998282032459
 30
0.0
 42
0.3147871795452168
  0
VERTEX
  5
272
  8
SignTorch_BIRD116_
 10
7.198295133855608
 20
7.121585296630858
 30
0.0
 42
0.63654923747731
  0
VERTEX
  5
273
  8
SignTorch_BIRD116_
 10
7.255611358831628
 20
7.135475088496928
 30
0.0
 42
0.0095271314096875
  0
VERTEX
  5
274
  8
SignTorch_BIRD116_
 10
7.267355680730608
 20
7.199917327880859
 30
0.0
 42
0.0124214547227977
  0
VERTEX
  5
275
  8
SignTorch_BIRD116_
 10
7.27589316610694
 20
7.26213314038719
 30
0.0
 42
-0.5986162031334955
  0
VERTEX
  5
276
  8
SignTorch_BIRD116_
 10
7.292230680730608
 20
7.268667327880859
 30
0.0
 42
-0.3449208509316463
  0
VERTEX
  5
277
  8
SignTorch_BIRD116_
 10
7.302095368128701
 20
7.221966431888278
 30
0.0
 42
0.1323270314459409
  0
VERTEX
  5
278
  8
SignTorch_BIRD116_
 10
7.285230680730607
 20
7.135667327880859
 30
0.0
 42
-0.2408108605067486
  0
VERTEX
  5
279
  8
SignTorch_BIRD116_
 10
7.269009699310254
 20
7.097565554817948
 30
0.0
 42
0.0520239791590713
  0
VERTEX
  5
27A
  8
SignTorch_BIRD116_
 10
7.155125211980607
 20
6.980389984130859
 30
0.0
 42
0.0492089838418164
  0
VERTEX
  5
27B
  8
SignTorch_BIRD116_
 10
7.014508578761108
 20
6.760458403494647
 30
0.0
 42
-0.037467663049015
  0
VERTEX
  5
27C
  8
SignTorch_BIRD116_
 10
6.941586149480608
 20
6.640288421630858
 30
0.0
 42
-0.1767297937064831
  0
VERTEX
  5
27D
  8
SignTorch_BIRD116_
 10
6.894132952880039
 20
6.60778042484452
 30
0.0
 42
0.0933766410930906
  0
VERTEX
  5
27E
  8
SignTorch_BIRD116_
 10
6.686230680730608
 20
6.510667327880859
 30
0.0
 42
0.1856924067034542
  0
VERTEX
  5
27F
  8
SignTorch_BIRD116_
 10
6.426543629037132
 20
6.114637526226586
 30
0.0
 42
0.061274285664807
  0
VERTEX
  5
280
  8
SignTorch_BIRD116_
 10
6.397230680730608
 20
5.792667327880859
 30
0.0
 42
0.0192983571933045
  0
VERTEX
  5
281
  8
SignTorch_BIRD116_
 10
6.402600070382669
 20
5.716300894703862
 30
0.0
 42
-0.5937453499310198
  0
VERTEX
  5
282
  8
SignTorch_BIRD116_
 10
6.385074430730608
 20
5.70410482788086
 30
0.0
 42
-0.0698798384874206
  0
VERTEX
  5
283
  8
SignTorch_BIRD116_
 10
6.35571577485138
 20
5.724327541456442
 30
0.0
 42
0.0764836429356241
  0
VERTEX
  5
284
  8
SignTorch_BIRD116_
 10
6.237230680730607
 20
5.803667327880859
 30
0.0
 42
-0.2193370301117112
  0
VERTEX
  5
285
  8
SignTorch_BIRD116_
 10
6.173986920228488
 20
5.878511516057766
 30
0.0
 42
0.1822791392369122
  0
VERTEX
  5
286
  8
SignTorch_BIRD116_
 10
6.116230680730608
 20
5.957667327880859
 30
0.0
 42
0.2055805172221244
  0
VERTEX
  5
287
  8
SignTorch_BIRD116_
 10
6.07004232506188
 20
5.965802139045256
 30
0.0
 42
-0.1472031817431033
  0
VERTEX
  5
288
  8
SignTorch_BIRD116_
 10
6.023230680730607
 20
5.968667327880859
 30
0.0
 42
0.0271627040216609
  0
VERTEX
  5
289
  8
SignTorch_BIRD116_
 10
5.951731235544667
 20
5.990716211572003
 30
0.0
 42
0.3728872598996073
  0
VERTEX
  5
28A
  8
SignTorch_BIRD116_
 10
5.920152555730608
 20
5.974714202880859
 30
0.0
 42
0.1680460090116384
  0
VERTEX
  5
28B
  8
SignTorch_BIRD116_
 10
5.917211337744932
 20
5.921252945042684
 30
0.0
 42
0.0909382087653175
  0
VERTEX
  5
28C
  8
SignTorch_BIRD116_
 10
5.960230680730608
 20
5.834292327880859
 30
0.0
 42
-0.3038849850998122
  0
VERTEX
  5
28D
  8
SignTorch_BIRD116_
 10
5.962238766180378
 20
5.794751182912123
 30
0.0
 42
0.3328723402456475
  0
VERTEX
  5
28E
  8
SignTorch_BIRD116_
 10
5.966324430730608
 20
5.755370452880859
 30
0.0
 42
0.1378821880123857
  0
VERTEX
  5
28F
  8
SignTorch_BIRD116_
 10
6.016801844470338
 20
5.724373107995151
 30
0.0
 42
0.1394846241187417
  0
VERTEX
  5
290
  8
SignTorch_BIRD116_
 10
6.115640836980607
 20
5.72442318725586
 30
0.0
 42
0.0879308201822725
  0
VERTEX
  5
291
  8
SignTorch_BIRD116_
 10
6.156642268831268
 20
5.744386035896447
 30
0.0
 42
-0.2991895823660739
  0
VERTEX
  5
292
  8
SignTorch_BIRD116_
 10
6.240543180730608
 20
5.748339202880858
 30
0.0
 42
-0.0885816057517428
  0
VERTEX
  5
293
  8
SignTorch_BIRD116_
 10
6.396122451547024
 20
5.614331147084981
 30
0.0
 42
-0.2864943706764259
  0
VERTEX
  5
294
  8
SignTorch_BIRD116_
 10
6.404621305730608
 20
5.546698577880859
 30
0.0
 42
-0.335134237126917
  0
VERTEX
  5
295
  8
SignTorch_BIRD116_
 10
6.312794968054725
 20
5.497599026553675
 30
0.0
 42
0.0214839657771005
  0
VERTEX
  5
296
  8
SignTorch_BIRD116_
 10
6.173105680730608
 20
5.513417327880859
 30
0.0
 42
0.1638194182838713
  0
VERTEX
  5
297
  8
SignTorch_BIRD116_
 10
6.070581045776873
 20
5.486696484103215
 30
0.0
 42
-0.0685756668003532
  0
VERTEX
  5
298
  8
SignTorch_BIRD116_
 10
5.893105680730607
 20
5.40254232788086
 30
0.0
 42
0.099444393064989
  0
VERTEX
  5
299
  8
SignTorch_BIRD116_
 10
5.808536272800475
 20
5.35589348318203
 30
0.0
 42
0.3490517265717594
  0
VERTEX
  5
29A
  8
SignTorch_BIRD116_
 10
5.802558805730608
 20
5.325917327880859
 30
0.0
 42
0.0885794408959775
  0
VERTEX
  5
29B
  8
SignTorch_BIRD116_
 10
5.817100203151989
 20
5.306849741617525
 30
0.0
 42
-0.4429471786511343
  0
VERTEX
  5
29C
  8
SignTorch_BIRD116_
 10
5.816963102605608
 20
5.28287045288086
 30
0.0
 42
-0.1948451138484765
  0
VERTEX
  5
29D
  8
SignTorch_BIRD116_
 10
5.784658381292361
 20
5.271214890677857
 30
0.0
 42
-0.2475776667931673
  0
VERTEX
  5
29E
  8
SignTorch_BIRD116_
 10
5.760730680730608
 20
5.285042327880859
 30
0.0
 42
-0.2809860187964017
  0
VERTEX
  5
29F
  8
SignTorch_BIRD116_
 10
5.759185210541445
 20
5.399036395202934
 30
0.0
 42
0.5138561129620406
  0
VERTEX
  5
2A0
  8
SignTorch_BIRD116_
 10
5.734230680730607
 20
5.455667327880859
 30
0.0
 42
0.3849865128192815
  0
VERTEX
  5
2A1
  8
SignTorch_BIRD116_
 10
5.715984297533494
 20
5.445010926432337
 30
0.0
 42
-0.6608543407961052
  0
VERTEX
  5
2A2
  8
SignTorch_BIRD116_
 10
5.677287321355608
 20
5.441298187255859
 30
0.0
 42
-0.0632647730887532
  0
VERTEX
  5
2A3
  8
SignTorch_BIRD116_
 10
5.638127751612247
 20
5.54162006013953
 30
0.0
 42
0.168162192922415
  0
VERTEX
  5
2A4
  8
SignTorch_BIRD116_
 10
5.579199430730608
 20
5.63176107788086
 30
0.0
 42
0.2053582400233177
  0
VERTEX
  5
2A5
  8
SignTorch_BIRD116_
 10
5.545982285075057
 20
5.640367059342416
 30
0.0
 42
0.3337298329935293
  0
VERTEX
  5
2A6
  8
SignTorch_BIRD116_
 10
5.530226774480608
 20
5.624280609130859
 30
0.0
 42
0.1257796637068526
  0
VERTEX
  5
2A7
  8
SignTorch_BIRD116_
 10
5.534510323749805
 20
5.588592097794964
 30
0.0
 42
0.0231536014543001
  0
VERTEX
  5
2A8
  8
SignTorch_BIRD116_
 10
5.612230680730607
 20
5.412667327880859
 30
0.0
 42
0.0108459947164516
  0
VERTEX
  5
2A9
  8
SignTorch_BIRD116_
 10
5.704778752619434
 20
5.236617084760485
 30
0.0
 42
-0.2781558919305678
  0
VERTEX
  5
2AA
  8
SignTorch_BIRD116_
 10
5.702892790105609
 20
5.185552093505859
 30
0.0
 42
-0.0625515967301186
  0
VERTEX
  5
2AB
  8
SignTorch_BIRD116_
 10
5.674876124945812
 20
5.152588495508964
 30
0.0
 42
0.1220221859435952
  0
VERTEX
  5
2AC
  8
SignTorch_BIRD116_
 10
5.579230680730608
 20
5.008667327880858
 30
0.0
 42
0.3389787134820074
  0
VERTEX
  5
2AD
  8
SignTorch_BIRD116_
 10
5.591803094293702
 20
4.969410719400576
 30
0.0
 42
-0.297817210094853
  0
VERTEX
  5
2AE
  8
SignTorch_BIRD116_
 10
5.607271696355608
 20
4.93120248413086
 30
0.0
 42
-0.0276454033081672
  0
VERTEX
  5
2AF
  8
SignTorch_BIRD116_
 10
5.602017036598368
 20
4.910580770242591
 30
0.0
 42
-0.0080953372931705
  0
VERTEX
  5
2B0
  8
SignTorch_BIRD116_
 10
5.579105680730608
 20
4.841667327880859
 30
0.0
 42
-0.3185980976705899
  0
VERTEX
  5
2B1
  8
SignTorch_BIRD116_
 10
5.533540638647835
 20
4.809359364124851
 30
0.0
 42
0.218266877593071
  0
VERTEX
  5
2B2
  8
SignTorch_BIRD116_
 10
5.482761930730608
 20
4.786089202880859
 30
0.0
 42
0.3895772397914041
  0
VERTEX
  5
2B3
  8
SignTorch_BIRD116_
 10
5.484024837251926
 20
4.746240252438804
 30
0.0
 42
0.3151090983377812
  0
VERTEX
  5
2B4
  8
SignTorch_BIRD116_
 10
5.530261930730608
 20
4.737557952880859
 30
0.0
 42
0.0201055588311043
  0
VERTEX
  5
2B5
  8
SignTorch_BIRD116_
 10
5.593245146550382
 20
4.769164741875858
 30
0.0
 42
-0.6221182886076917
  0
VERTEX
  5
2B6
  8
SignTorch_BIRD116_
 10
5.640011930730608
 20
4.73663607788086
 30
0.0
 42
-0.1512927658255682
  0
VERTEX
  5
2B7
  8
SignTorch_BIRD116_
 10
5.613393461424881
 20
4.68157300131735
 30
0.0
 42
-0.1319881123384811
  0
VERTEX
  5
2B8
  8
SignTorch_BIRD116_
 10
5.554230680730607
 20
4.644667327880859
 30
0.0
 42
0.3202367570389497
  0
VERTEX
  5
2B9
  8
SignTorch_BIRD116_
 10
5.525546944666766
 20
4.607377651292831
 30
0.0
 42
0.4029448803074487
  0
VERTEX
  5
2BA
  8
SignTorch_BIRD116_
 10
5.551840055730608
 20
4.578011077880859
 30
0.0
 42
0.2789614473794619
  0
VERTEX
  5
2BB
  8
SignTorch_BIRD116_
 10
5.611754545493814
 20
4.608416566456055
 30
0.0
 42
-0.1591547439810729
  0
VERTEX
  5
2BC
  8
SignTorch_BIRD116_
 10
5.639543180730607
 20
4.631729827880859
 30
0.0
 42
-0.858307398735531
  0
VERTEX
  5
2BD
  8
SignTorch_BIRD116_
 10
5.65373015566326
 20
4.607769012219546
 30
0.0
 42
0.2805451276888815
  0
VERTEX
  5
2BE
  8
SignTorch_BIRD116_
 10
5.637277555730607
 20
4.56080795288086
 30
0.0
 42
0.512773667564261
  0
VERTEX
  5
2BF
  8
SignTorch_BIRD116_
 10
5.673176719813765
 20
4.545071615142124
 30
0.0
 42
0.2843465644855978
  0
VERTEX
  5
2C0
  8
SignTorch_BIRD116_
 10
5.701230680730608
 20
4.598667327880859
 30
0.0
 42
0.0505623869968071
  0
VERTEX
  5
2C1
  8
SignTorch_BIRD116_
 10
5.692623792771347
 20
4.647953507162971
 30
0.0
 42
-0.5175987998518538
  0
VERTEX
  5
2C2
  8
SignTorch_BIRD116_
 10
5.710230680730608
 20
4.66966732788086
 30
0.0
 42
-0.0345756589883703
  0
VERTEX
  5
2C3
  8
SignTorch_BIRD116_
 10
5.744585358239822
 20
4.665004194534041
 30
0.0
 42
0.3204984426810624
  0
VERTEX
  5
2C4
  8
SignTorch_BIRD116_
 10
5.765425993230608
 20
4.674218109130859
 30
0.0
 42
0.1314986937336572
  0
VERTEX
  5
2C5
  8
SignTorch_BIRD116_
 10
5.778402219762134
 20
4.72061451433142
 30
0.0
 42
-0.1150911035533282
  0
VERTEX
  5
2C6
  8
SignTorch_BIRD116_
 10
5.824277555730608
 20
4.90776107788086
 30
0.0
 42
-0.0849892141195784
  0
VERTEX
  5
2C7
  8
SignTorch_BIRD116_
 10
5.851957839295994
 20
4.94500578225284
 30
0.0
 42
-0.3917504889176041
  0
VERTEX
  5
2C8
  8
SignTorch_BIRD116_
 10
5.883492399480607
 20
4.94548959350586
 30
0.0
 42
-0.1075059711413638
  0
VERTEX
  5
2C9
  8
SignTorch_BIRD116_
 10
5.910160596175842
 20
4.908542132692715
 30
0.0
 42
-0.1361379525114182
  0
VERTEX
  5
2CA
  8
SignTorch_BIRD116_
 10
5.915230680730608
 20
4.872667327880859
 30
0.0
 42
-0.0884851717142778
  0
VERTEX
  5
2CB
  8
SignTorch_BIRD116_
 10
5.902213242883592
 20
4.83156666122789
 30
0.0
 42
0.0162070645962622
  0
VERTEX
  5
2CC
  8
SignTorch_BIRD116_
 10
5.827230680730608
 20
4.676667327880859
 30
0.0
 42
-0.0005750380221164
  0
VERTEX
  5
2CD
  8
SignTorch_BIRD116_
 10
5.673186072079518
 20
4.331314016264135
 30
0.0
 42
-0.0290973057716361
  0
VERTEX
  5
2CE
  8
SignTorch_BIRD116_
 10
5.517425993230608
 20
4.03131576538086
 30
0.0
 42
-0.0300571443544687
  0
VERTEX
  5
2CF
  8
SignTorch_BIRD116_
 10
5.097067972980133
 20
3.413128496821489
 30
0.0
 42
0.0231585166335669
  0
VERTEX
  5
2D0
  8
SignTorch_BIRD116_
 10
4.989855680730608
 20
3.260042327880859
 30
0.0
 42
0.0716445801666925
  0
VERTEX
  5
2D1
  8
SignTorch_BIRD116_
 10
4.944837319368094
 20
3.159665450322202
 30
0.0
 42
0.5448177040072804
  0
VERTEX
  5
2D2
  8
SignTorch_BIRD116_
 10
4.987136930730609
 20
3.111354827880859
 30
0.0
 42
0.1131318750752999
  0
VERTEX
  5
2D3
  8
SignTorch_BIRD116_
 10
5.022176735029803
 20
3.125001016699205
 30
0.0
 42
0.0235523100112762
  0
VERTEX
  5
2D4
  8
SignTorch_BIRD116_
 10
5.312230680730608
 20
3.342667327880859
 30
0.0
 42
-0.0413077178810649
  0
VERTEX
  5
2D5
  8
SignTorch_BIRD116_
 10
5.340337911724149
 20
3.362241219901698
 30
0.0
 42
-0.5851178620363803
  0
VERTEX
  5
2D6
  8
SignTorch_BIRD116_
 10
5.355027555730608
 20
3.35357357788086
 30
0.0
 42
-0.0987363742700734
  0
VERTEX
  5
2D7
  8
SignTorch_BIRD116_
 10
5.339195451166847
 20
3.282076379034606
 30
0.0
 42
0.0871307464502722
  0
VERTEX
  5
2D8
  8
SignTorch_BIRD116_
 10
5.306746305730607
 20
3.150011077880859
 30
0.0
 42
0.2132852385341712
  0
VERTEX
  5
2D9
  8
SignTorch_BIRD116_
 10
5.323156221374346
 20
3.105493587801675
 30
0.0
 42
0.3148900535742645
  0
VERTEX
  5
2DA
  8
SignTorch_BIRD116_
 10
5.356351774480608
 20
3.099204437255859
 30
0.0
 42
0.1593980969933707
  0
VERTEX
  5
2DB
  8
SignTorch_BIRD116_
 10
5.392128650272689
 20
3.131807682066964
 30
0.0
 42
-0.026693772620215
  0
VERTEX
  5
2DC
  8
SignTorch_BIRD116_
 10
5.495730680730608
 20
3.293792327880859
 30
0.0
 42
0.0239693630795593
  0
VERTEX
  5
2DD
  8
SignTorch_BIRD116_
 10
5.675594550008682
 20
3.571669203504464
 30
0.0
 42
-0.0399378268063304
  0
VERTEX
  5
2DE
  8
SignTorch_BIRD116_
 10
5.864230680730608
 20
3.843667327880859
 30
0.0
 42
-0.1328133660863948
  0
VERTEX
  5
2DF
  8
SignTorch_BIRD116_
 10
5.883708412540089
 20
3.857587898634343
 30
0.0
 42
-0.4746510788870454
  0
VERTEX
  5
2E0
  8
SignTorch_BIRD116_
 10
5.890668180730607
 20
3.853511077880859
 30
0.0
 42
-0.0926196793978152
  0
VERTEX
  5
2E1
  8
SignTorch_BIRD116_
 10
5.889519832656194
 20
3.815413980632374
 30
0.0
 42
0.0075487084414148
  0
VERTEX
  5
2E2
  8
SignTorch_BIRD116_
 10
5.859355680730608
 20
3.666417327880859
 30
0.0
 42
0.0496465202168651
  0
VERTEX
  5
2E3
  8
SignTorch_BIRD116_
 10
5.793175474843228
 20
2.893722738093325
 30
0.0
 42
0.184201472198111
  0
VERTEX
  5
2E4
  8
SignTorch_BIRD116_
 10
5.831515104558733
 20
2.797198089599609
 30
0.0
 42
0.3473525404431211
  0
VERTEX
  5
2E5
  8
SignTorch_BIRD116_
 10
5.914960839518508
 20
2.783752386116938
 30
0.0
 42
-0.0850969579603476
  0
VERTEX
  5
2E6
  8
SignTorch_BIRD116_
 10
5.994670133855609
 20
2.811866546630859
 30
0.0
 42
-0.169556370841921
  0
VERTEX
  5
2E7
  8
SignTorch_BIRD116_
 10
6.044147248223709
 20
2.803545680036637
 30
0.0
 42
0.191548921148481
  0
VERTEX
  5
2E8
  8
SignTorch_BIRD116_
 10
6.093933805730607
 20
2.797339202880859
 30
0.0
 42
0.0429569409682339
  0
VERTEX
  5
2E9
  8
SignTorch_BIRD116_
 10
6.152324207458094
 20
2.81801717948258
 30
0.0
 42
-0.0609292473837753
  0
VERTEX
  5
2EA
  8
SignTorch_BIRD116_
 10
6.211418180730607
 20
2.83658920288086
 30
0.0
 42
0.0718717198959063
  0
VERTEX
  5
2EB
  8
SignTorch_BIRD116_
 10
6.265724834800587
 20
2.854965986006682
 30
0.0
 42
0.1229506827601664
  0
VERTEX
  5
2EC
  8
SignTorch_BIRD116_
 10
6.291293180730608
 20
2.87714193725586
 30
0.0
 42
0.0944200611620372
  0
VERTEX
  5
2ED
  8
SignTorch_BIRD116_
 10
6.32347594800829
 20
2.948559343901254
 30
0.0
 42
0.0557477928629453
  0
VERTEX
  5
2EE
  8
SignTorch_BIRD116_
 10
6.361761930730608
 20
3.256448577880859
 30
0.0
 42
0.045986710057933
  0
VERTEX
  5
2EF
  8
SignTorch_BIRD116_
 10
6.32144499983763
 20
3.762037300340576
 30
0.0
 42
-0.2088498132469645
  0
VERTEX
  5
2F0
  8
SignTorch_BIRD116_
 10
6.386775602605607
 20
4.028657562255859
 30
0.0
 42
-0.0368269325316119
  0
VERTEX
  5
2F1
  8
SignTorch_BIRD116_
 10
6.433661945639058
 20
4.081505002034302
 30
0.0
 42
-0.0248376812850322
  0
VERTEX
  5
2F2
  8
SignTorch_BIRD116_
 10
6.512230680730608
 20
4.15066732788086
 30
0.0
 42
-0.0364702304135048
  0
VERTEX
  5
2F3
  8
SignTorch_BIRD116_
 10
6.555535330385181
 20
4.180245226668641
 30
0.0
 42
-0.4356492661984052
  0
VERTEX
  5
2F4
  8
SignTorch_BIRD116_
 10
6.606730680730608
 20
4.164667327880859
 30
0.0
 42
-0.0005341783618152
  0
VERTEX
  5
2F5
  8
SignTorch_BIRD116_
 10
6.63094943067213
 20
4.114866062129917
 30
0.0
 42
0.2314113700407175
  0
VERTEX
  5
2F6
  8
SignTorch_BIRD116_
 10
6.668230680730608
 20
4.085667327880859
 30
0.0
 42
-0.005392058845606
  0
VERTEX
  5
2F7
  8
SignTorch_BIRD116_
 10
6.735852655798513
 20
4.070518693892119
 30
0.0
 42
-0.1139357593181874
  0
VERTEX
  5
2F8
  8
SignTorch_BIRD116_
 10
6.761886930730608
 20
4.057682952880858
 30
0.0
 42
-0.0406596819956194
  0
VERTEX
  5
2F9
  8
SignTorch_BIRD116_
 10
6.871590214416332
 20
3.952107595986689
 30
0.0
 42
-0.2580357965211558
  0
VERTEX
  5
2FA
  8
SignTorch_BIRD116_
 10
6.877121305730608
 20
3.927167327880859
 30
0.0
 42
-0.1662337099548167
  0
VERTEX
  5
2FB
  8
SignTorch_BIRD116_
 10
6.855148458731115
 20
3.896144945014881
 30
0.0
 42
0.1293896651312289
  0
VERTEX
  5
2FC
  8
SignTorch_BIRD116_
 10
6.758595915105608
 20
3.778770843505859
 30
0.0
 42
0.1362013021370638
  0
VERTEX
  5
2FD
  8
SignTorch_BIRD116_
 10
6.722570234002789
 20
3.555941896548545
 30
0.0
 42
0.0974427336469937
  0
VERTEX
  5
2FE
  8
SignTorch_BIRD116_
 10
6.816388883855607
 20
3.257647796630859
 30
0.0
 42
0.1198379240837331
  0
VERTEX
  5
2FF
  8
SignTorch_BIRD116_
 10
6.907909062540117
 20
3.156918341965927
 30
0.0
 42
0.3894761660000303
  0
VERTEX
  5
300
  8
SignTorch_BIRD116_
 10
6.954933805730608
 20
3.16393295288086
 30
0.0
 42
0.1167611944967184
  0
VERTEX
  5
301
  8
SignTorch_BIRD116_
 10
6.975004213754782
 20
3.205754096714826
 30
0.0
 42
-0.0182884097041207
  0
VERTEX
  5
302
  8
SignTorch_BIRD116_
 10
7.021011930730607
 20
3.384776702880859
 30
0.0
 42
0.0210959571754897
  0
VERTEX
  5
303
  8
SignTorch_BIRD116_
 10
7.061889594688929
 20
3.547623706738576
 30
0.0
 42
0.0476095076945727
  0
VERTEX
  5
304
  8
SignTorch_BIRD116_
 10
7.079230680730608
 20
3.706667327880859
 30
0.0
 42
-0.1385578974554779
  0
VERTEX
  5
305
  8
SignTorch_BIRD116_
 10
7.085869559260503
 20
3.72901082127605
 30
0.0
 42
-0.3390167992748058
  0
VERTEX
  5
306
  8
SignTorch_BIRD116_
 10
7.095648649480608
 20
3.732612640380859
 30
0.0
 42
-0.148134387456025
  0
VERTEX
  5
307
  8
SignTorch_BIRD116_
 10
7.137172571302954
 20
3.704511769469831
 30
0.0
 42
0.0463257733425971
  0
VERTEX
  5
308
  8
SignTorch_BIRD116_
 10
7.172230680730608
 20
3.668667327880859
 30
0.0
 42
0.020092585506555
  0
VERTEX
  5
309
  8
SignTorch_BIRD116_
 10
7.361370118057118
 20
3.520743719976892
 30
0.0
 42
-0.0503475082113805
  0
VERTEX
  5
30A
  8
SignTorch_BIRD116_
 10
7.541230680730608
 20
3.361667327880859
 30
0.0
 42
-0.0186439616016881
  0
VERTEX
  5
30B
  8
SignTorch_BIRD116_
 10
7.582483391920801
 20
3.313551160753163
 30
0.0
 42
-0.0032288573358471
  0
VERTEX
  5
30C
  8
SignTorch_BIRD116_
 10
7.808230680730607
 20
3.025667327880859
 30
0.0
 42
-0.1254008771301116
  0
VERTEX
  5
30D
  8
SignTorch_BIRD116_
 10
7.820225994636878
 20
2.997996700735536
 30
0.0
 42
-0.3951879700726417
  0
VERTEX
  5
30E
  8
SignTorch_BIRD116_
 10
7.814136930730608
 20
2.988964202880859
 30
0.0
 42
-0.0742054997796958
  0
VERTEX
  5
30F
  8
SignTorch_BIRD116_
 10
7.768455594267772
 20
2.985448790432116
 30
0.0
 42
0.1277514902927398
  0
VERTEX
  5
310
  8
SignTorch_BIRD116_
 10
7.588445524480607
 20
2.95217318725586
 30
0.0
 42
0.1402320307567829
  0
VERTEX
  5
311
  8
SignTorch_BIRD116_
 10
7.381432411285084
 20
2.772226997408331
 30
0.0
 42
0.1325275203516885
  0
VERTEX
  5
312
  8
SignTorch_BIRD116_
 10
7.292230680730608
 20
2.496667327880859
 30
0.0
 42
0.0399455237025932
  0
VERTEX
  5
313
  8
SignTorch_BIRD116_
 10
7.300638853560906
 20
2.219275905651514
 30
0.0
 42
0.0547339891567782
  0
VERTEX
  5
314
  8
SignTorch_BIRD116_
 10
7.318467008855608
 20
2.13936654663086
 30
0.0
 42
0.1434137444600653
  0
VERTEX
  5
315
  8
SignTorch_BIRD116_
 10
7.334085812841552
 20
2.117197144057857
 30
0.0
 42
0.3599678127188817
  0
VERTEX
  5
316
  8
SignTorch_BIRD116_
 10
7.358965055730608
 20
2.117667327880859
 30
0.0
 42
0.1159232578537334
  0
VERTEX
  5
317
  8
SignTorch_BIRD116_
 10
7.39976027057006
 20
2.173615570563308
 30
0.0
 42
-0.0995704268868581
  0
VERTEX
  5
318
  8
SignTorch_BIRD116_
 10
7.555605680730608
 20
2.402542327880859
 30
0.0
 42
0.0075409135872018
  0
VERTEX
  5
319
  8
SignTorch_BIRD116_
 10
7.733773825377947
 20
2.582246913201595
 30
0.0
 42
0.0648249513344909
  0
VERTEX
  5
31A
  8
SignTorch_BIRD116_
 10
7.895230680730609
 20
2.80066732788086
 30
0.0
 42
0.0470338175597098
  0
VERTEX
  5
31B
  8
SignTorch_BIRD116_
 10
7.925458786706402
 20
2.869632942214906
 30
0.0
 42
-0.3952908207548606
  0
VERTEX
  5
31C
  8
SignTorch_BIRD116_
 10
7.942730680730608
 20
2.879042327880859
 30
0.0
 42
-0.1990050552152512
  0
VERTEX
  5
31D
  8
SignTorch_BIRD116_
 10
7.95756335209505
 20
2.867838130710458
 30
0.0
 42
0.0631525697907956
  0
VERTEX
  5
31E
  8
SignTorch_BIRD116_
 10
7.968918180730608
 20
2.85312045288086
 30
0.0
 42
-0.0050173568966744
  0
VERTEX
  5
31F
  8
SignTorch_BIRD116_
 10
8.18065867480269
 20
2.636162666300472
 30
0.0
 42
-0.0819638638113541
  0
VERTEX
  5
320
  8
SignTorch_BIRD116_
 10
8.346806852605608
 20
2.393112640380859
 30
0.0
 42
-0.1724497346277504
  0
VERTEX
  5
321
  8
SignTorch_BIRD116_
 10
8.361504902033094
 20
2.238089853214769
 30
0.0
 42
0.035615391442133
  0
VERTEX
  5
322
  8
SignTorch_BIRD116_
 10
8.253355680730607
 20
1.629292327880859
 30
0.0
 42
0.0574682658868287
  0
VERTEX
  5
323
  8
SignTorch_BIRD116_
 10
8.25702583938992
 20
1.269520849505286
 30
0.0
 42
0.1717945124223016
  0
VERTEX
  5
324
  8
SignTorch_BIRD116_
 10
8.312436979558733
 20
1.159149017333984
 30
0.0
 42
0.1829900137634586
  0
VERTEX
  5
325
  8
SignTorch_BIRD116_
 10
8.379445535803763
 20
1.130559222440417
 30
0.0
 42
-0.1209176058634964
  0
VERTEX
  5
326
  8
SignTorch_BIRD116_
 10
8.417152555730608
 20
1.119636077880859
 30
0.0
 42
-0.0627533551200175
  0
VERTEX
  5
327
  8
SignTorch_BIRD116_
 10
8.45926103409625
 20
1.087759324371682
 30
0.0
 42
0.1374469370950016
  0
VERTEX
  5
328
  8
SignTorch_BIRD116_
 10
8.505605680730607
 20
1.062432952880859
 30
0.0
 42
0.0626610139501406
  0
VERTEX
  5
329
  8
SignTorch_BIRD116_
 10
8.556870440901603
 20
1.057196341356628
 30
0.0
 42
-0.1652825662647353
  0
VERTEX
  5
32A
  8
SignTorch_BIRD116_
 10
8.606035368230607
 20
1.041759124755859
 30
0.0
 42
-0.0594839459424826
  0
VERTEX
  5
32B
  8
SignTorch_BIRD116_
 10
8.657474646185495
 20
0.9937739152634602
 30
0.0
 42
0.2791507595758297
  0
VERTEX
  5
32C
  8
SignTorch_BIRD116_
 10
8.724136930730607
 20
0.9713079528808594
 30
0.0
 42
0.2640049211261431
  0
VERTEX
  5
32D
  8
SignTorch_BIRD116_
 10
8.798198377931161
 20
1.038339691854377
 30
0.0
 42
0.067753115177505
  0
VERTEX
  5
32E
  8
SignTorch_BIRD116_
 10
8.823668180730607
 20
1.175464202880859
 30
0.0
 42
0.0192629048645837
  0
VERTEX
  5
32F
  8
SignTorch_BIRD116_
 10
8.826619341103354
 20
1.475711826168863
 30
0.0
 42
0.0343020386438979
  0
VERTEX
  5
330
  8
SignTorch_BIRD116_
 10
8.810230680730607
 20
1.643667327880859
 30
0.0
 42
-0.0005679511988524
  0
VERTEX
  5
331
  8
SignTorch_BIRD116_
 10
8.789623633329665
 20
1.767644394564639
 30
0.0
 42
-0.2256247093776326
  0
VERTEX
  5
332
  8
SignTorch_BIRD116_
 10
8.798488493230609
 20
1.798444671630859
 30
0.0
 42
-0.4851662276502827
  0
VERTEX
  5
333
  8
SignTorch_BIRD116_
 10
8.807505675503869
 20
1.79793298126877
 30
0.0
 42
-0.0895269666637347
  0
VERTEX
  5
334
  8
SignTorch_BIRD116_
 10
8.824230680730608
 20
1.761667327880859
 30
0.0
 42
-0.0781723143293436
  0
VERTEX
  5
335
  8
SignTorch_BIRD116_
 10
8.854679041931439
 20
1.450390136216422
 30
0.0
 42
0.0842518116078193
  0
VERTEX
  5
336
  8
SignTorch_BIRD116_
 10
8.863230680730608
 20
1.372667327880859
 30
0.0
 42
0.1752730873847753
  0
VERTEX
  5
337
  8
SignTorch_BIRD116_
 10
8.880287403833767
 20
1.34901194422774
 30
0.0
 42
0.2778840845227526
  0
VERTEX
  5
338
  8
SignTorch_BIRD116_
 10
8.899480680730608
 20
1.347917327880859
 30
0.0
 42
0.259628387652223
  0
VERTEX
  5
339
  8
SignTorch_BIRD116_
 10
8.943204073217101
 20
1.41499900815129
 30
0.0
 42
-0.5784140960445954
  0
VERTEX
  5
33A
  8
SignTorch_BIRD116_
 10
8.961746305730609
 20
1.424011077880859
 30
0.0
 42
-0.1742554577996533
  0
VERTEX
  5
33B
  8
SignTorch_BIRD116_
 10
8.98555662513299
 20
1.391311085503313
 30
0.0
 42
0.1527863662824511
  0
VERTEX
  5
33C
  8
SignTorch_BIRD116_
 10
9.075230680730607
 20
1.256667327880859
 30
0.0
 42
0.7356286443004887
  0
VERTEX
  5
33D
  8
SignTorch_BIRD116_
 10
9.15034119713063
 20
1.306790508844687
 30
0.0
 42
-0.0169202615149811
  0
VERTEX
  5
33E
  8
SignTorch_BIRD116_
 10
9.073355680730607
 20
1.605417327880859
 30
0.0
 42
-0.026780799679531
  0
VERTEX
  5
33F
  8
SignTorch_BIRD116_
 10
9.03888950513799
 20
1.812508107972885
 30
0.0
 42
-0.0403474313988457
  0
VERTEX
  5
340
  8
SignTorch_BIRD116_
 10
9.034605680730607
 20
1.951917327880859
 30
0.0
 42
-0.0811873659574093
  0
VERTEX
  5
341
  8
SignTorch_BIRD116_
 10
9.040283150945125
 20
1.978301621687675
 30
0.0
 42
-0.3807817162504044
  0
VERTEX
  5
342
  8
SignTorch_BIRD116_
 10
9.046121305730608
 20
1.981261077880859
 30
0.0
 42
-0.2217813981292959
  0
VERTEX
  5
343
  8
SignTorch_BIRD116_
 10
9.068671052302939
 20
1.962459921911413
 30
0.0
 42
0.0331791248563779
  0
VERTEX
  5
344
  8
SignTorch_BIRD116_
 10
9.124777555730608
 20
1.861120452880859
 30
0.0
 42
0.0101353351714496
  0
VERTEX
  5
345
  8
SignTorch_BIRD116_
 10
9.18971151366039
 20
1.76460902635463
 30
0.0
 42
-0.0377086320403653
  0
VERTEX
  5
346
  8
SignTorch_BIRD116_
 10
9.249230680730607
 20
1.664667327880859
 30
0.0
 42
-0.0113607337324788
  0
VERTEX
  5
347
  8
SignTorch_BIRD116_
 10
9.362874330629115
 20
1.422664834743897
 30
0.0
 42
-0.0071209089041126
  0
VERTEX
  5
348
  8
SignTorch_BIRD116_
 10
9.52977755573061
 20
1.030167327880859
 30
0.0
 42
-0.0237579996310705
  0
VERTEX
  5
349
  8
SignTorch_BIRD116_
 10
9.570789646213303
 20
0.9143457114424819
 30
0.0
 42
-0.04891118701257
  0
VERTEX
  5
34A
  8
SignTorch_BIRD116_
 10
9.594855680730607
 20
0.7925423278808594
 30
0.0
 42
0.0097288252562594
  0
VERTEX
  5
34B
  8
SignTorch_BIRD116_
 10
9.621828241526051
 20
0.5626263716073114
 30
0.0
 42
0.3679950869737749
  0
VERTEX
  5
34C
  8
SignTorch_BIRD116_
 10
9.691855680730608
 20
0.5000423278808593
 30
0.0
 42
0.0805241358967736
  0
VERTEX
  5
34D
  8
SignTorch_BIRD116_
 10
9.7471629538382
 20
0.5076448956161654
 30
0.0
 42
0.3156190992026631
  0
VERTEX
  5
34E
  8
SignTorch_BIRD116_
 10
9.792652555730607
 20
0.5660110778808594
 30
0.0
 42
0.0174660048604376
  0
VERTEX
  5
34F
  8
SignTorch_BIRD116_
 10
9.794913669751988
 20
0.710330521030636
 30
0.0
 42
-0.0107297315995735
  0
SEQEND
  5
350
  8
SignTorch_BIRD116_
  0
ENDSEC
  0
EOF
