  0
SECTION
  2
HEADER
  9
$ACADVER
  1
AC1009
  9
$DWGCODEPAGE
  3
ansi_1252
  9
$INSBASE
 10
0.0
 20
0.0
 30
0.0
  9
$EXTMIN
 10
3.50382578418173
 20
0.513976972369732
 30
0.0
  9
$EXTMAX
 10
11.49369526811969
 20
8.462029354554476
 30
0.0
  9
$LIMMIN
 10
0.0
 20
0.0
  9
$LIMMAX
 10
12.0
 20
9.0
  9
$ORTHOMODE
 70
     0
  9
$REGENMODE
 70
     1
  9
$FILLMODE
 70
     1
  9
$QTEXTMODE
 70
     0
  9
$MIRRTEXT
 70
     1
  9
$DRAGMODE
 70
     2
  9
$LTSCALE
 40
1.0
  9
$OSMODE
 70
    37
  9
$ATTMODE
 70
     1
  9
$TEXTSIZE
 40
0.2
  9
$TRACEWID
 40
0.05
  9
$TEXTSTYLE
  7
STANDARD
  9
$CLAYER
  8
0
  9
$CELTYPE
  6
BYLAYER
  9
$CECOLOR
 62
   256
  9
$DIMSCALE
 40
1.0
  9
$DIMASZ
 40
0.18
  9
$DIMEXO
 40
0.0625
  9
$DIMDLI
 40
0.38
  9
$DIMRND
 40
0.0
  9
$DIMDLE
 40
0.0
  9
$DIMEXE
 40
0.18
  9
$DIMTP
 40
0.0
  9
$DIMTM
 40
0.0
  9
$DIMTXT
 40
0.18
  9
$DIMCEN
 40
0.09
  9
$DIMTSZ
 40
0.0
  9
$DIMTOL
 70
     0
  9
$DIMLIM
 70
     0
  9
$DIMTIH
 70
     1
  9
$DIMTOH
 70
     1
  9
$DIMSE1
 70
     0
  9
$DIMSE2
 70
     0
  9
$DIMTAD
 70
     0
  9
$DIMZIN
 70
     0
  9
$DIMBLK
  1

  9
$DIMASO
 70
     1
  9
$DIMSHO
 70
     1
  9
$DIMPOST
  1

  9
$DIMAPOST
  1

  9
$DIMALT
 70
     0
  9
$DIMALTD
 70
     2
  9
$DIMALTF
 40
25.4
  9
$DIMLFAC
 40
1.0
  9
$DIMTOFL
 70
     0
  9
$DIMTVP
 40
0.0
  9
$DIMTIX
 70
     0
  9
$DIMSOXD
 70
     0
  9
$DIMSAH
 70
     0
  9
$DIMBLK1
  1

  9
$DIMBLK2
  1

  9
$DIMSTYLE
  2
STANDARD
  9
$DIMCLRD
 70
     0
  9
$DIMCLRE
 70
     0
  9
$DIMCLRT
 70
     0
  9
$DIMTFAC
 40
1.0
  9
$DIMGAP
 40
0.09
  9
$LUNITS
 70
     2
  9
$LUPREC
 70
     4
  9
$SKETCHINC
 40
0.1
  9
$FILLETRAD
 40
0.5
  9
$AUNITS
 70
     0
  9
$AUPREC
 70
     0
  9
$MENU
  1
.
  9
$ELEVATION
 40
0.0
  9
$PELEVATION
 40
0.0
  9
$THICKNESS
 40
0.0
  9
$LIMCHECK
 70
     0
  9
$CHAMFERA
 40
0.5
  9
$CHAMFERB
 40
0.5
  9
$SKPOLY
 70
     0
  9
$TDCREATE
 40
2454910.5
  9
$TDUPDATE
 40
2455562.466966146
  9
$TDINDWG
 40
0.0000000116
  9
$TDUSRTIMER
 40
0.0000000116
  9
$USRTIMER
 70
     1
  9
$ANGBASE
 50
0.0
  9
$ANGDIR
 70
     0
  9
$PDMODE
 70
     0
  9
$PDSIZE
 40
0.0
  9
$PLINEWID
 40
0.0
  9
$COORDS
 70
     1
  9
$SPLFRAME
 70
     0
  9
$SPLINETYPE
 70
     6
  9
$SPLINESEGS
 70
     8
  9
$ATTDIA
 70
     0
  9
$ATTREQ
 70
     1
  9
$HANDLING
 70
     1
  9
$HANDSEED
  5
3B7
  9
$SURFTAB1
 70
     6
  9
$SURFTAB2
 70
     6
  9
$SURFTYPE
 70
     6
  9
$SURFU
 70
     6
  9
$SURFV
 70
     6
  9
$UCSNAME
  2

  9
$UCSORG
 10
0.0
 20
0.0
 30
0.0
  9
$UCSXDIR
 10
1.0
 20
0.0
 30
0.0
  9
$UCSYDIR
 10
0.0
 20
1.0
 30
0.0
  9
$PUCSNAME
  2

  9
$PUCSORG
 10
0.0
 20
0.0
 30
0.0
  9
$PUCSXDIR
 10
1.0
 20
0.0
 30
0.0
  9
$PUCSYDIR
 10
0.0
 20
1.0
 30
0.0
  9
$USERI1
 70
     0
  9
$USERI2
 70
     0
  9
$USERI3
 70
     0
  9
$USERI4
 70
     0
  9
$USERI5
 70
     0
  9
$USERR1
 40
0.0
  9
$USERR2
 40
0.0
  9
$USERR3
 40
0.0
  9
$USERR4
 40
0.0
  9
$USERR5
 40
0.0
  9
$WORLDVIEW
 70
     1
  9
$SHADEDGE
 70
     3
  9
$SHADEDIF
 70
    70
  9
$TILEMODE
 70
     1
  9
$MAXACTVP
 70
    64
  9
$PLIMCHECK
 70
     0
  9
$PEXTMIN
 10
1.000000000000000E+20
 20
1.000000000000000E+20
 30
1.000000000000000E+20
  9
$PEXTMAX
 10
-1.000000000000000E+20
 20
-1.000000000000000E+20
 30
-1.000000000000000E+20
  9
$PLIMMIN
 10
0.0
 20
0.0
  9
$PLIMMAX
 10
12.0
 20
9.0
  9
$UNITMODE
 70
     0
  9
$VISRETAIN
 70
     1
  9
$PLINEGEN
 70
     0
  9
$PSLTSCALE
 70
     1
  0
ENDSEC
  0
SECTION
  2
TABLES
  0
TABLE
  2
VPORT
 70
     1
  0
VPORT
  2
*ACTIVE
 70
     0
 10
0.0
 20
0.0
 11
1.0
 21
1.0
 12
10.42990654205607
 22
4.5
 13
0.0
 23
0.0
 14
0.5
 24
0.5
 15
0.5
 25
0.5
 16
0.0
 26
0.0
 36
1.0
 17
0.0
 27
0.0
 37
0.0
 40
9.0
 41
1.972972972850329
 42
50.0
 43
0.0
 44
0.0
 50
0.0
 51
0.0
 71
     0
 72
   100
 73
     1
 74
     3
 75
     0
 76
     0
 77
     0
 78
     0
  0
ENDTAB
  0
TABLE
  2
LTYPE
 70
     2
  0
LTYPE
  2
CONTINUOUS
 70
     0
  3
Solid line
 72
    65
 73
     0
 40
0.0
  0
LTYPE
  2
CONTINUOUS2
 70
     0
  3
Solid Line
 72
    65
 73
     0
 40
0.0
  0
ENDTAB
  0
TABLE
  2
LAYER
 70
     2
  0
LAYER
  2
0
 70
     0
 62
     7
  6
CONTINUOUS
  0
LAYER
  2
SignTorch_CATTAIL003_
 70
     0
 62
    18
  6
CONTINUOUS
  0
ENDTAB
  0
TABLE
  2
STYLE
 70
     1
  0
STYLE
  2
STANDARD
 70
     0
 40
0.0
 41
1.0
 50
0.0
 71
     0
 42
0.2
  3
txt
  4

  0
ENDTAB
  0
TABLE
  2
VIEW
 70
     0
  0
ENDTAB
  0
TABLE
  2
UCS
 70
     0
  0
ENDTAB
  0
TABLE
  2
APPID
 70
     1
  0
APPID
  2
ACAD
 70
     0
  0
ENDTAB
  0
TABLE
  2
DIMSTYLE
 70
     1
  0
DIMSTYLE
  2
STANDARD
 70
     0
  3

  4

  5

  6

  7

 40
1.0
 41
0.18
 42
0.0625
 43
0.38
 44
0.18
 45
0.0
 46
0.0
 47
0.0
 48
0.0
140
0.18
141
0.09
142
0.0
143
25.4
144
1.0
145
0.0
146
1.0
147
0.09
 71
     0
 72
     0
 73
     1
 74
     1
 75
     0
 76
     0
 77
     0
 78
     0
170
     0
171
     2
172
     0
173
     0
174
     0
175
     0
176
     0
177
     0
178
     0
  0
ENDTAB
  0
ENDSEC
  0
SECTION
  2
BLOCKS
  0
BLOCK
  8
0
  2
$MODEL_SPACE
 70
     0
 10
0.0
 20
0.0
 30
0.0
  3
$MODEL_SPACE
  1

  0
ENDBLK
  5
21
  8
0
  0
BLOCK
 67
     1
  8
0
  2
$PAPER_SPACE
 70
     0
 10
0.0
 20
0.0
 30
0.0
  3
$PAPER_SPACE
  1

  0
ENDBLK
  5
1D
 67
     1
  8
0
  0
ENDSEC
  0
SECTION
  2
ENTITIES
  0
POLYLINE
  5
41
  8
SignTorch_CATTAIL003_
 66
     1
 10
0.0
 20
0.0
 30
0.0
 70
     1
  0
VERTEX
  5
57
  8
SignTorch_CATTAIL003_
 10
7.788379959106445
 20
4.236621277385288
 30
0.0
 42
0.0097333185895197
  0
VERTEX
  5
58
  8
SignTorch_CATTAIL003_
 10
7.765898703920897
 20
3.523609913872052
 30
0.0
 42
-0.0262923132910786
  0
VERTEX
  5
59
  8
SignTorch_CATTAIL003_
 10
7.754379959106445
 20
3.345621277385288
 30
0.0
 42
0.0459039023505861
  0
VERTEX
  5
5A
  8
SignTorch_CATTAIL003_
 10
7.753586714407327
 20
3.314465591968186
 30
0.0
 42
-0.8340972656164138
  0
VERTEX
  5
5B
  8
SignTorch_CATTAIL003_
 10
7.730379959106444
 20
3.308621277385288
 30
0.0
 42
-0.050123469285299
  0
VERTEX
  5
5C
  8
SignTorch_CATTAIL003_
 10
7.71741630920237
 20
3.346847032401272
 30
0.0
 42
-0.0094592531727515
  0
VERTEX
  5
5D
  8
SignTorch_CATTAIL003_
 10
7.673379959106446
 20
3.555621277385288
 30
0.0
 42
-0.0180893631154369
  0
VERTEX
  5
5E
  8
SignTorch_CATTAIL003_
 10
7.566198326445408
 20
4.251658794865043
 30
0.0
 42
-0.0259534191957497
  0
VERTEX
  5
5F
  8
SignTorch_CATTAIL003_
 10
7.534442459106445
 20
4.741652527385288
 30
0.0
 42
-0.0016286792679746
  0
VERTEX
  5
60
  8
SignTorch_CATTAIL003_
 10
7.530189662153022
 20
5.186228553662779
 30
0.0
 42
-0.0089932019901162
  0
VERTEX
  5
61
  8
SignTorch_CATTAIL003_
 10
7.531129959106445
 20
5.266746277385288
 30
0.0
 42
-0.0765954674843337
  0
VERTEX
  5
62
  8
SignTorch_CATTAIL003_
 10
7.53793420418998
 20
5.303603415629802
 30
0.0
 42
-0.3881569600108639
  0
VERTEX
  5
63
  8
SignTorch_CATTAIL003_
 10
7.545379959106445
 20
5.307621277385288
 30
0.0
 42
-0.1936842661803546
  0
VERTEX
  5
64
  8
SignTorch_CATTAIL003_
 10
7.574777939375214
 20
5.286263034734804
 30
0.0
 42
0.0394711335103587
  0
VERTEX
  5
65
  8
SignTorch_CATTAIL003_
 10
7.596442459106446
 20
5.257090027385289
 30
0.0
 42
-0.0303302273348023
  0
VERTEX
  5
66
  8
SignTorch_CATTAIL003_
 10
7.788653774530765
 20
5.007899908984612
 30
0.0
 42
-0.1362915341125177
  0
VERTEX
  5
67
  8
SignTorch_CATTAIL003_
 10
7.811442459106445
 20
4.940371277385287
 30
0.0
 42
-0.0218313472367317
  0
VERTEX
  5
68
  8
SignTorch_CATTAIL003_
 10
7.812768091787777
 20
4.818720613978203
 30
0.0
 42
-0.0045566423500317
  0
SEQEND
  5
69
  8
SignTorch_CATTAIL003_
  0
POLYLINE
  5
42
  8
SignTorch_CATTAIL003_
 66
     1
 10
0.0
 20
0.0
 30
0.0
 70
     1
  0
VERTEX
  5
6A
  8
SignTorch_CATTAIL003_
 10
7.899379959106445
 20
4.036621277385287
 30
0.0
 42
-0.0019815368595867
  0
VERTEX
  5
6B
  8
SignTorch_CATTAIL003_
 10
7.910904432898505
 20
4.365562819935365
 30
0.0
 42
0.0081350518334172
  0
VERTEX
  5
6C
  8
SignTorch_CATTAIL003_
 10
7.918379959106446
 20
4.694621277385288
 30
0.0
 42
0.0012701869495797
  0
VERTEX
  5
6D
  8
SignTorch_CATTAIL003_
 10
7.918603427713605
 20
4.751863339796331
 30
0.0
 42
-0.4139206484655854
  0
VERTEX
  5
6E
  8
SignTorch_CATTAIL003_
 10
7.929379959106444
 20
4.762621277385287
 30
0.0
 42
-0.3020823869680709
  0
VERTEX
  5
6F
  8
SignTorch_CATTAIL003_
 10
7.940097780957613
 20
4.755490095222068
 30
0.0
 42
0.0319915563406739
  0
VERTEX
  5
70
  8
SignTorch_CATTAIL003_
 10
7.962379959106445
 20
4.710621277385287
 30
0.0
 42
-0.0302715287092404
  0
VERTEX
  5
71
  8
SignTorch_CATTAIL003_
 10
8.000800767940714
 20
4.633917546775457
 30
0.0
 42
-0.0689060531083056
  0
VERTEX
  5
72
  8
SignTorch_CATTAIL003_
 10
8.010754959106444
 20
4.597418152385288
 30
0.0
 42
-0.0429607702575152
  0
VERTEX
  5
73
  8
SignTorch_CATTAIL003_
 10
8.015161672064846
 20
4.494481615310657
 30
0.0
 42
0.0108834447649098
  0
VERTEX
  5
74
  8
SignTorch_CATTAIL003_
 10
8.006379959106445
 20
4.082621277385288
 30
0.0
 42
0.0058209519885065
  0
VERTEX
  5
75
  8
SignTorch_CATTAIL003_
 10
8.015811264786231
 20
3.302501224409713
 30
0.0
 42
-0.0746796572263826
  0
VERTEX
  5
76
  8
SignTorch_CATTAIL003_
 10
7.991379959106445
 20
3.108621277385287
 30
0.0
 42
0.0175629856387763
  0
VERTEX
  5
77
  8
SignTorch_CATTAIL003_
 10
7.930579849015449
 20
2.859427919205251
 30
0.0
 42
0.0241840218648448
  0
VERTEX
  5
78
  8
SignTorch_CATTAIL003_
 10
7.901661209106444
 20
2.675355652385288
 30
0.0
 42
0.0305170655025066
  0
VERTEX
  5
79
  8
SignTorch_CATTAIL003_
 10
7.89532810142826
 20
2.539132595469435
 30
0.0
 42
-0.1693616316125875
  0
VERTEX
  5
7A
  8
SignTorch_CATTAIL003_
 10
7.884490463581231
 20
2.506536128729463
 30
0.0
 42
-0.4392453800074017
  0
VERTEX
  5
7B
  8
SignTorch_CATTAIL003_
 10
7.879731710724031
 20
2.506123338936467
 30
0.0
 42
-0.1310874687099459
  0
VERTEX
  5
7C
  8
SignTorch_CATTAIL003_
 10
7.872379959106445
 20
2.517621277385288
 30
0.0
 42
-0.0935007481829075
  0
VERTEX
  5
7D
  8
SignTorch_CATTAIL003_
 10
7.842631952799491
 20
2.760774498435624
 30
0.0
 42
0.0079156149581692
  0
VERTEX
  5
7E
  8
SignTorch_CATTAIL003_
 10
7.890379959106444
 20
3.736621277385288
 30
0.0
 42
0.0012841746875296
  0
VERTEX
  5
7F
  8
SignTorch_CATTAIL003_
 10
7.894955045342414
 20
3.886619024798208
 30
0.0
 42
-0.0007835992773305
  0
SEQEND
  5
80
  8
SignTorch_CATTAIL003_
  0
POLYLINE
  5
43
  8
SignTorch_CATTAIL003_
 66
     1
 10
0.0
 20
0.0
 30
0.0
 70
     1
  0
VERTEX
  5
81
  8
SignTorch_CATTAIL003_
 10
6.065379959106445
 20
3.520621277385288
 30
0.0
 42
0.0006273692957916
  0
VERTEX
  5
82
  8
SignTorch_CATTAIL003_
 10
6.069534467577066
 20
3.409524121668165
 30
0.0
 42
-0.2770543491352661
  0
VERTEX
  5
83
  8
SignTorch_CATTAIL003_
 10
6.050379959106444
 20
3.374621277385287
 30
0.0
 42
-0.4395480052797225
  0
VERTEX
  5
84
  8
SignTorch_CATTAIL003_
 10
6.035593779380537
 20
3.379194009234221
 30
0.0
 42
0.0651153533339816
  0
VERTEX
  5
85
  8
SignTorch_CATTAIL003_
 10
6.003661209106446
 20
3.428722839885288
 30
0.0
 42
0.3502040987635387
  0
VERTEX
  5
86
  8
SignTorch_CATTAIL003_
 10
5.975509966809609
 20
3.434264753724503
 30
0.0
 42
0.2257915087246731
  0
VERTEX
  5
87
  8
SignTorch_CATTAIL003_
 10
5.961284255981445
 20
3.415447449260288
 30
0.0
 42
0.1802676753341109
  0
VERTEX
  5
88
  8
SignTorch_CATTAIL003_
 10
5.972976487792311
 20
3.339883504489454
 30
0.0
 42
-0.2256814647920167
  0
VERTEX
  5
89
  8
SignTorch_CATTAIL003_
 10
5.982379959106446
 20
3.198246277385288
 30
0.0
 42
-0.0606558145563064
  0
VERTEX
  5
8A
  8
SignTorch_CATTAIL003_
 10
5.961202387898096
 20
3.159369739662499
 30
0.0
 42
-0.3826570593883069
  0
VERTEX
  5
8B
  8
SignTorch_CATTAIL003_
 10
5.953379959106445
 20
3.157621277385288
 30
0.0
 42
-0.2548785068755651
  0
VERTEX
  5
8C
  8
SignTorch_CATTAIL003_
 10
5.945843607109785
 20
3.169624935565535
 30
0.0
 42
0.0439884393187445
  0
VERTEX
  5
8D
  8
SignTorch_CATTAIL003_
 10
5.941958084106444
 20
3.195433777385288
 30
0.0
 42
-0.0256073131955909
  0
VERTEX
  5
8E
  8
SignTorch_CATTAIL003_
 10
5.913214682041782
 20
3.34806051261788
 30
0.0
 42
0.010279843471646
  0
VERTEX
  5
8F
  8
SignTorch_CATTAIL003_
 10
5.889161209106445
 20
3.501496277385288
 30
0.0
 42
-0.1171993800057811
  0
VERTEX
  5
90
  8
SignTorch_CATTAIL003_
 10
5.895055746656875
 20
3.604299797865727
 30
0.0
 42
-0.044758371139195
  0
VERTEX
  5
91
  8
SignTorch_CATTAIL003_
 10
5.993926834106444
 20
3.851793152385287
 30
0.0
 42
-0.01406586116907
  0
VERTEX
  5
92
  8
SignTorch_CATTAIL003_
 10
6.036755351359495
 20
3.930629357784158
 30
0.0
 42
-0.6547201091711969
  0
VERTEX
  5
93
  8
SignTorch_CATTAIL003_
 10
6.062536209106445
 20
3.927668152385288
 30
0.0
 42
-0.1062387868380422
  0
VERTEX
  5
94
  8
SignTorch_CATTAIL003_
 10
6.065959063366118
 20
3.887676347303797
 30
0.0
 42
0.031011208858068
  0
VERTEX
  5
95
  8
SignTorch_CATTAIL003_
 10
6.063379959106444
 20
3.847621277385288
 30
0.0
 42
0.0021034481864575
  0
VERTEX
  5
96
  8
SignTorch_CATTAIL003_
 10
6.063867581064262
 20
3.592220711035239
 30
0.0
 42
0.0075018872915018
  0
SEQEND
  5
97
  8
SignTorch_CATTAIL003_
  0
POLYLINE
  5
44
  8
SignTorch_CATTAIL003_
 66
     1
 10
0.0
 20
0.0
 30
0.0
 70
     1
  0
VERTEX
  5
98
  8
SignTorch_CATTAIL003_
 10
6.520379959106444
 20
2.135621277385288
 30
0.0
 42
0.0133345592070158
  0
VERTEX
  5
99
  8
SignTorch_CATTAIL003_
 10
6.542938101642614
 20
1.868114086647235
 30
0.0
 42
-0.0854447584733701
  0
VERTEX
  5
9A
  8
SignTorch_CATTAIL003_
 10
6.538926834106445
 20
1.800980652385288
 30
0.0
 42
-0.1633459132230543
  0
VERTEX
  5
9B
  8
SignTorch_CATTAIL003_
 10
6.535739847175067
 20
1.79582875467616
 30
0.0
 42
-0.4687969100842071
  0
VERTEX
  5
9C
  8
SignTorch_CATTAIL003_
 10
6.527020584106445
 20
1.797449402385288
 30
0.0
 42
-0.1210372598490175
  0
VERTEX
  5
9D
  8
SignTorch_CATTAIL003_
 10
6.512319273045954
 20
1.850699387393823
 30
0.0
 42
0.0396478526330641
  0
VERTEX
  5
9E
  8
SignTorch_CATTAIL003_
 10
6.506379959106445
 20
1.905621277385288
 30
0.0
 42
0.0175493548712372
  0
VERTEX
  5
9F
  8
SignTorch_CATTAIL003_
 10
6.413575156456265
 20
2.316633319826228
 30
0.0
 42
-0.1523983351275303
  0
VERTEX
  5
A0
  8
SignTorch_CATTAIL003_
 10
6.418379959106446
 20
2.422621277385288
 30
0.0
 42
-0.0327184933780231
  0
VERTEX
  5
A1
  8
SignTorch_CATTAIL003_
 10
6.461089356653269
 20
2.520037085390338
 30
0.0
 42
-0.0970726556272254
  0
VERTEX
  5
A2
  8
SignTorch_CATTAIL003_
 10
6.483598709106444
 20
2.548324402385288
 30
0.0
 42
-0.5393389481051281
  0
VERTEX
  5
A3
  8
SignTorch_CATTAIL003_
 10
6.500251437567316
 20
2.543461408492979
 30
0.0
 42
-0.0536905126439974
  0
VERTEX
  5
A4
  8
SignTorch_CATTAIL003_
 10
6.506379959106445
 20
2.511621277385288
 30
0.0
 42
-0.0196545870571104
  0
VERTEX
  5
A5
  8
SignTorch_CATTAIL003_
 10
6.514574420707726
 20
2.323665752019378
 30
0.0
 42
0.0132994071273147
  0
SEQEND
  5
A6
  8
SignTorch_CATTAIL003_
  0
POLYLINE
  5
45
  8
SignTorch_CATTAIL003_
 66
     1
 10
0.0
 20
0.0
 30
0.0
 70
     1
  0
VERTEX
  5
A7
  8
SignTorch_CATTAIL003_
 10
6.630379959106445
 20
2.538621277385288
 30
0.0
 42
0.0008684050892999
  0
VERTEX
  5
A8
  8
SignTorch_CATTAIL003_
 10
6.622072904089854
 20
2.678728654309114
 30
0.0
 42
-0.2246416831249428
  0
VERTEX
  5
A9
  8
SignTorch_CATTAIL003_
 10
6.666542068481445
 20
2.789746277385288
 30
0.0
 42
-0.0840863501132015
  0
VERTEX
  5
AA
  8
SignTorch_CATTAIL003_
 10
6.764721248279092
 20
2.85408182028168
 30
0.0
 42
-0.5008999122883694
  0
VERTEX
  5
AB
  8
SignTorch_CATTAIL003_
 10
6.786004959106445
 20
2.841996277385288
 30
0.0
 42
-0.0759390427120983
  0
VERTEX
  5
AC
  8
SignTorch_CATTAIL003_
 10
6.784636362931014
 20
2.789278525386703
 30
0.0
 42
0.0104970980961624
  0
VERTEX
  5
AD
  8
SignTorch_CATTAIL003_
 10
6.769379959106445
 20
2.692621277385288
 30
0.0
 42
-0.0109951369900499
  0
VERTEX
  5
AE
  8
SignTorch_CATTAIL003_
 10
6.705279117627533
 20
2.289119047591151
 30
0.0
 42
-0.0296145240201246
  0
VERTEX
  5
AF
  8
SignTorch_CATTAIL003_
 10
6.669379959106445
 20
2.141621277385288
 30
0.0
 42
0.0247227017900921
  0
VERTEX
  5
B0
  8
SignTorch_CATTAIL003_
 10
6.664781114652754
 20
2.123499064794742
 30
0.0
 42
-0.7870454257794759
  0
VERTEX
  5
B1
  8
SignTorch_CATTAIL003_
 10
6.649551834106445
 20
2.122918152385288
 30
0.0
 42
-0.06679473917752
  0
VERTEX
  5
B2
  8
SignTorch_CATTAIL003_
 10
6.641923478934778
 20
2.176297420323174
 30
0.0
 42
0.0085918242151157
  0
VERTEX
  5
B3
  8
SignTorch_CATTAIL003_
 10
6.636379959106445
 20
2.391621277385287
 30
0.0
 42
-0.0028846930308933
  0
VERTEX
  5
B4
  8
SignTorch_CATTAIL003_
 10
6.633647535563712
 20
2.465132198873339
 30
0.0
 42
0.0065252575745383
  0
SEQEND
  5
B5
  8
SignTorch_CATTAIL003_
  0
POLYLINE
  5
46
  8
SignTorch_CATTAIL003_
 66
     1
 10
0.0
 20
0.0
 30
0.0
 70
     1
  0
VERTEX
  5
B6
  8
SignTorch_CATTAIL003_
 10
8.028379959106445
 20
2.093621277385288
 30
0.0
 42
-0.0063659718803171
  0
VERTEX
  5
B7
  8
SignTorch_CATTAIL003_
 10
8.020301404316617
 20
1.777328577845378
 30
0.0
 42
0.0018712299270817
  0
VERTEX
  5
B8
  8
SignTorch_CATTAIL003_
 10
8.009379959106443
 20
1.461121277385288
 30
0.0
 42
0.0249530999782502
  0
VERTEX
  5
B9
  8
SignTorch_CATTAIL003_
 10
8.010810801297955
 20
1.386268723090628
 30
0.0
 42
-0.2010261475516235
  0
VERTEX
  5
BA
  8
SignTorch_CATTAIL003_
 10
7.997754959106445
 20
1.347871277385288
 30
0.0
 42
-0.5362552864636784
  0
VERTEX
  5
BB
  8
SignTorch_CATTAIL003_
 10
7.988512400612273
 20
1.349156621555166
 30
0.0
 42
-0.0850656712454511
  0
VERTEX
  5
BC
  8
SignTorch_CATTAIL003_
 10
7.975864334106444
 20
1.393402527385288
 30
0.0
 42
-0.030712713400328
  0
VERTEX
  5
BD
  8
SignTorch_CATTAIL003_
 10
7.966367722407444
 20
1.594009500727264
 30
0.0
 42
-0.0093762520719289
  0
VERTEX
  5
BE
  8
SignTorch_CATTAIL003_
 10
7.987958084106444
 20
2.250933777385288
 30
0.0
 42
-0.0146769022564667
  0
VERTEX
  5
BF
  8
SignTorch_CATTAIL003_
 10
8.006720000395237
 20
2.482176995901472
 30
0.0
 42
-0.0854819297034147
  0
VERTEX
  5
C0
  8
SignTorch_CATTAIL003_
 10
8.01783950026866
 20
2.520721572695126
 30
0.0
 42
-0.5941896755974008
  0
VERTEX
  5
C1
  8
SignTorch_CATTAIL003_
 10
8.02141237880547
 20
2.520890036987853
 30
0.0
 42
-0.088365306658564
  0
VERTEX
  5
C2
  8
SignTorch_CATTAIL003_
 10
8.027879959106444
 20
2.504183777385288
 30
0.0
 42
-0.0548133447034211
  0
VERTEX
  5
C3
  8
SignTorch_CATTAIL003_
 10
8.034746346428662
 20
2.422218907245746
 30
0.0
 42
0.0032839756883357
  0
SEQEND
  5
C4
  8
SignTorch_CATTAIL003_
  0
POLYLINE
  5
47
  8
SignTorch_CATTAIL003_
 66
     1
 10
0.0
 20
0.0
 30
0.0
 70
     1
  0
VERTEX
  5
C5
  8
SignTorch_CATTAIL003_
 10
9.008379959106446
 20
2.710621277385288
 30
0.0
 42
-0.0883119846807693
  0
VERTEX
  5
C6
  8
SignTorch_CATTAIL003_
 10
9.52503890510376
 20
3.268955969913975
 30
0.0
 42
-0.0734624631110532
  0
VERTEX
  5
C7
  8
SignTorch_CATTAIL003_
 10
9.804622146606446
 20
3.422172058635288
 30
0.0
 42
-0.1016420732358533
  0
VERTEX
  5
C8
  8
SignTorch_CATTAIL003_
 10
10.08055521133226
 20
3.464459344110691
 30
0.0
 42
-0.1640118833370294
  0
VERTEX
  5
C9
  8
SignTorch_CATTAIL003_
 10
10.24412995910644
 20
3.399949402385287
 30
0.0
 42
-0.1299032105396934
  0
VERTEX
  5
CA
  8
SignTorch_CATTAIL003_
 10
10.25415141122941
 20
3.385661435804051
 30
0.0
 42
-0.3735799397064473
  0
VERTEX
  5
CB
  8
SignTorch_CATTAIL003_
 10
10.24887995910644
 20
3.371730652385287
 30
0.0
 42
-0.055084794574541
  0
VERTEX
  5
CC
  8
SignTorch_CATTAIL003_
 10
10.18652889270712
 20
3.346541766720803
 30
0.0
 42
0.0359972908042128
  0
VERTEX
  5
CD
  8
SignTorch_CATTAIL003_
 10
9.933504959106445
 20
3.255371277385287
 30
0.0
 42
0.042390600963251
  0
VERTEX
  5
CE
  8
SignTorch_CATTAIL003_
 10
9.546314902384523
 20
3.042571657132981
 30
0.0
 42
0.0347722241993968
  0
VERTEX
  5
CF
  8
SignTorch_CATTAIL003_
 10
9.120004959106446
 20
2.713902527385287
 30
0.0
 42
0.0181747114240452
  0
VERTEX
  5
D0
  8
SignTorch_CATTAIL003_
 10
9.001515561404425
 20
2.600686134385665
 30
0.0
 42
0.0268094307544797
  0
VERTEX
  5
D1
  8
SignTorch_CATTAIL003_
 10
8.928379959106444
 20
2.516996277385288
 30
0.0
 42
-0.0173659351287201
  0
VERTEX
  5
D2
  8
SignTorch_CATTAIL003_
 10
8.885786348939371
 20
2.466357771008326
 30
0.0
 42
-0.1039134011234474
  0
VERTEX
  5
D3
  8
SignTorch_CATTAIL003_
 10
8.876754959106444
 20
2.459777527385288
 30
0.0
 42
-0.505688120645548
  0
VERTEX
  5
D4
  8
SignTorch_CATTAIL003_
 10
8.869743269048918
 20
2.463734606832146
 30
0.0
 42
-0.1366975851357331
  0
VERTEX
  5
D5
  8
SignTorch_CATTAIL003_
 10
8.873379959106446
 20
2.487621277385287
 30
0.0
 42
-0.0304014384912762
  0
VERTEX
  5
D6
  8
SignTorch_CATTAIL003_
 10
8.894831781761974
 20
2.528468423777737
 30
0.0
 42
-0.0065289458970014
  0
SEQEND
  5
D7
  8
SignTorch_CATTAIL003_
  0
POLYLINE
  5
48
  8
SignTorch_CATTAIL003_
 66
     1
 10
0.0
 20
0.0
 30
0.0
 70
     1
  0
VERTEX
  5
D8
  8
SignTorch_CATTAIL003_
 10
8.668754959106446
 20
3.363246277385288
 30
0.0
 42
-0.0476274868845995
  0
VERTEX
  5
D9
  8
SignTorch_CATTAIL003_
 10
8.799920869457244
 20
3.589305822185476
 30
0.0
 42
-0.099251561161083
  0
VERTEX
  5
DA
  8
SignTorch_CATTAIL003_
 10
9.132754959106444
 20
3.900621277385287
 30
0.0
 42
-0.033359671492674
  0
VERTEX
  5
DB
  8
SignTorch_CATTAIL003_
 10
9.283854286774732
 20
3.980722498903469
 30
0.0
 42
-0.1368646888854317
  0
VERTEX
  5
DC
  8
SignTorch_CATTAIL003_
 10
9.400063059002377
 20
3.998133714201195
 30
0.0
 42
-0.6686032140940872
  0
VERTEX
  5
DD
  8
SignTorch_CATTAIL003_
 10
9.402505835207997
 20
3.989265722966047
 30
0.0
 42
0.0013320664928906
  0
VERTEX
  5
DE
  8
SignTorch_CATTAIL003_
 10
9.377379959106445
 20
3.969621277385288
 30
0.0
 42
0.0098496763814837
  0
VERTEX
  5
DF
  8
SignTorch_CATTAIL003_
 10
9.255257593928516
 20
3.869661511987954
 30
0.0
 42
0.0455435475730749
  0
VERTEX
  5
E0
  8
SignTorch_CATTAIL003_
 10
9.116379959106444
 20
3.727621277385287
 30
0.0
 42
0.0073079658240054
  0
VERTEX
  5
E1
  8
SignTorch_CATTAIL003_
 10
8.90826030712662
 20
3.464117531104559
 30
0.0
 42
0.0310159706748181
  0
VERTEX
  5
E2
  8
SignTorch_CATTAIL003_
 10
8.782379959106445
 20
3.276871277385288
 30
0.0
 42
0.0171359396402236
  0
VERTEX
  5
E3
  8
SignTorch_CATTAIL003_
 10
8.624330836621759
 20
2.984508836346117
 30
0.0
 42
0.0328683571112673
  0
VERTEX
  5
E4
  8
SignTorch_CATTAIL003_
 10
8.557504959106444
 20
2.824496277385288
 30
0.0
 42
0.0115163936930068
  0
VERTEX
  5
E5
  8
SignTorch_CATTAIL003_
 10
8.52409835184614
 20
2.719071195015019
 30
0.0
 42
-0.0905136335303175
  0
VERTEX
  5
E6
  8
SignTorch_CATTAIL003_
 10
8.497395584106444
 20
2.665761902385288
 30
0.0
 42
-0.7946251398498042
  0
VERTEX
  5
E7
  8
SignTorch_CATTAIL003_
 10
8.47846379267168
 20
2.674148707620007
 30
0.0
 42
0.0397290928561295
  0
VERTEX
  5
E8
  8
SignTorch_CATTAIL003_
 10
8.481379959106444
 20
2.700621277385288
 30
0.0
 42
-0.0149466268790136
  0
VERTEX
  5
E9
  8
SignTorch_CATTAIL003_
 10
8.495121019462442
 20
2.928639178747864
 30
0.0
 42
-0.0589170392314724
  0
VERTEX
  5
EA
  8
SignTorch_CATTAIL003_
 10
8.507114334106443
 20
2.985527527385288
 30
0.0
 42
-0.0197225845381877
  0
VERTEX
  5
EB
  8
SignTorch_CATTAIL003_
 10
8.5437017459741
 20
3.081299221035678
 30
0.0
 42
-0.0065534242535884
  0
SEQEND
  5
EC
  8
SignTorch_CATTAIL003_
  0
POLYLINE
  5
49
  8
SignTorch_CATTAIL003_
 66
     1
 10
0.0
 20
0.0
 30
0.0
 70
     1
  0
VERTEX
  5
ED
  8
SignTorch_CATTAIL003_
 10
8.261504959106446
 20
2.879246277385288
 30
0.0
 42
-0.0167370912049301
  0
VERTEX
  5
EE
  8
SignTorch_CATTAIL003_
 10
8.218973235803814
 20
2.535487283217486
 30
0.0
 42
-0.0788281524325067
  0
VERTEX
  5
EF
  8
SignTorch_CATTAIL003_
 10
8.196129959106445
 20
2.465121277385288
 30
0.0
 42
-0.1037355428140106
  0
VERTEX
  5
F0
  8
SignTorch_CATTAIL003_
 10
8.185107827513322
 20
2.451434293459807
 30
0.0
 42
-0.5224066694588448
  0
VERTEX
  5
F1
  8
SignTorch_CATTAIL003_
 10
8.180880400814916
 20
2.452634925734513
 30
0.0
 42
-0.0734641609792016
  0
VERTEX
  5
F2
  8
SignTorch_CATTAIL003_
 10
8.176644471627379
 20
2.475322181254572
 30
0.0
 42
-0.0137910375789935
  0
VERTEX
  5
F3
  8
SignTorch_CATTAIL003_
 10
8.175379959106445
 20
2.597621277385288
 30
0.0
 42
0.0038341052494024
  0
VERTEX
  5
F4
  8
SignTorch_CATTAIL003_
 10
8.18236700436339
 20
3.327467894462789
 30
0.0
 42
-0.0871988903554661
  0
VERTEX
  5
F5
  8
SignTorch_CATTAIL003_
 10
8.214379959106445
 20
3.507621277385288
 30
0.0
 42
-0.0066196408350798
  0
VERTEX
  5
F6
  8
SignTorch_CATTAIL003_
 10
8.246418716131794
 20
3.591956030449773
 30
0.0
 42
0.329549365768031
  0
VERTEX
  5
F7
  8
SignTorch_CATTAIL003_
 10
8.240379959106445
 20
3.614621277385288
 30
0.0
 42
0.1700682571284582
  0
VERTEX
  5
F8
  8
SignTorch_CATTAIL003_
 10
8.213779605698242
 20
3.62393565797667
 30
0.0
 42
-0.3352146387600493
  0
VERTEX
  5
F9
  8
SignTorch_CATTAIL003_
 10
8.191288162231444
 20
3.640920105510288
 30
0.0
 42
-0.0892337608676221
  0
VERTEX
  5
FA
  8
SignTorch_CATTAIL003_
 10
8.187083494720623
 20
3.683199015137852
 30
0.0
 42
0.0168126208316559
  0
VERTEX
  5
FB
  8
SignTorch_CATTAIL003_
 10
8.194754959106445
 20
3.852621277385288
 30
0.0
 42
0.0265049554031661
  0
VERTEX
  5
FC
  8
SignTorch_CATTAIL003_
 10
8.191937532585458
 20
3.920684990216152
 30
0.0
 42
-0.1041393010198702
  0
VERTEX
  5
FD
  8
SignTorch_CATTAIL003_
 10
8.199629959106446
 20
3.988371277385288
 30
0.0
 42
-0.787796321379201
  0
VERTEX
  5
FE
  8
SignTorch_CATTAIL003_
 10
8.214015601340177
 20
3.987154130695292
 30
0.0
 42
0.0111546136051599
  0
VERTEX
  5
FF
  8
SignTorch_CATTAIL003_
 10
8.222379959106444
 20
3.939621277385287
 30
0.0
 42
-0.0059840129040945
  0
VERTEX
  5
100
  8
SignTorch_CATTAIL003_
 10
8.295718530514089
 20
3.546701965139001
 30
0.0
 42
-0.0662340359639435
  0
VERTEX
  5
101
  8
SignTorch_CATTAIL003_
 10
8.303379959106444
 20
3.356621277385288
 30
0.0
 42
0.0019523590184281
  0
VERTEX
  5
102
  8
SignTorch_CATTAIL003_
 10
8.282301530717415
 20
3.117946139524677
 30
0.0
 42
-0.0013619269104876
  0
SEQEND
  5
103
  8
SignTorch_CATTAIL003_
  0
POLYLINE
  5
4A
  8
SignTorch_CATTAIL003_
 66
     1
 10
0.0
 20
0.0
 30
0.0
 70
     1
  0
VERTEX
  5
104
  8
SignTorch_CATTAIL003_
 10
7.503379959106446
 20
2.974621277385288
 30
0.0
 42
0.0378917710951381
  0
VERTEX
  5
105
  8
SignTorch_CATTAIL003_
 10
7.455400882523511
 20
3.022531103300445
 30
0.0
 42
-0.104860085848542
  0
VERTEX
  5
106
  8
SignTorch_CATTAIL003_
 10
7.414210037231444
 20
3.076388855510288
 30
0.0
 42
-0.0523458918997182
  0
VERTEX
  5
107
  8
SignTorch_CATTAIL003_
 10
7.380647573405505
 20
3.171462611595973
 30
0.0
 42
0.1375671311830474
  0
VERTEX
  5
108
  8
SignTorch_CATTAIL003_
 10
7.18496760559082
 20
3.522790955119662
 30
0.0
 42
0.0616838222191273
  0
VERTEX
  5
109
  8
SignTorch_CATTAIL003_
 10
7.072142470687272
 20
3.611442452160094
 30
0.0
 42
0.0716021608286661
  0
VERTEX
  5
10A
  8
SignTorch_CATTAIL003_
 10
6.958129959106444
 20
3.659621277385287
 30
0.0
 42
-0.0403496887875704
  0
VERTEX
  5
10B
  8
SignTorch_CATTAIL003_
 10
6.911916490836952
 20
3.675839331421869
 30
0.0
 42
-0.1596411791986893
  0
VERTEX
  5
10C
  8
SignTorch_CATTAIL003_
 10
6.902512771606444
 20
3.684336121135287
 30
0.0
 42
-0.0582877098128503
  0
VERTEX
  5
10D
  8
SignTorch_CATTAIL003_
 10
6.887906879932959
 20
3.718598672326749
 30
0.0
 42
-0.0349949239189177
  0
VERTEX
  5
10E
  8
SignTorch_CATTAIL003_
 10
6.867114334106445
 20
3.813105652385287
 30
0.0
 42
-0.2453938597419357
  0
VERTEX
  5
10F
  8
SignTorch_CATTAIL003_
 10
6.888601323333218
 20
3.874892384848645
 30
0.0
 42
-0.1979799315702164
  0
VERTEX
  5
110
  8
SignTorch_CATTAIL003_
 10
7.068381912231446
 20
3.943371277385287
 30
0.0
 42
-0.168108152650481
  0
VERTEX
  5
111
  8
SignTorch_CATTAIL003_
 10
7.213439438182699
 20
3.888759429000556
 30
0.0
 42
-0.1072425078515306
  0
VERTEX
  5
112
  8
SignTorch_CATTAIL003_
 10
7.360723709106445
 20
3.700527527385288
 30
0.0
 42
-0.037272696934234
  0
VERTEX
  5
113
  8
SignTorch_CATTAIL003_
 10
7.500640552157006
 20
3.3458792345532
 30
0.0
 42
-0.0302996163218854
  0
VERTEX
  5
114
  8
SignTorch_CATTAIL003_
 10
7.612379959106445
 20
2.890621277385288
 30
0.0
 42
-0.0819141264655388
  0
VERTEX
  5
115
  8
SignTorch_CATTAIL003_
 10
7.612975009167505
 20
2.85486472963439
 30
0.0
 42
-0.4540704938152146
  0
VERTEX
  5
116
  8
SignTorch_CATTAIL003_
 10
7.606473709106445
 20
2.850683777385288
 30
0.0
 42
-0.1769406497158871
  0
VERTEX
  5
117
  8
SignTorch_CATTAIL003_
 10
7.583659359764179
 20
2.867360654027169
 30
0.0
 42
0.0220347038691237
  0
VERTEX
  5
118
  8
SignTorch_CATTAIL003_
 10
7.517379959106444
 20
2.957621277385288
 30
0.0
 42
0.0028694017293989
  0
VERTEX
  5
119
  8
SignTorch_CATTAIL003_
 10
7.508323606968937
 20
2.968747785697443
 30
0.0
 42
0.0053622184450465
  0
SEQEND
  5
11A
  8
SignTorch_CATTAIL003_
  0
POLYLINE
  5
4B
  8
SignTorch_CATTAIL003_
 66
     1
 10
0.0
 20
0.0
 30
0.0
 70
     1
  0
VERTEX
  5
11B
  8
SignTorch_CATTAIL003_
 10
6.803379959106445
 20
3.154621277385288
 30
0.0
 42
-0.0082053894530117
  0
VERTEX
  5
11C
  8
SignTorch_CATTAIL003_
 10
6.798041157141363
 20
3.040663773552938
 30
0.0
 42
-0.2460627817542649
  0
VERTEX
  5
11D
  8
SignTorch_CATTAIL003_
 10
6.773989334106445
 20
3.001058777385288
 30
0.0
 42
-0.0329518046648783
  0
VERTEX
  5
11E
  8
SignTorch_CATTAIL003_
 10
6.717501390874201
 20
2.971893308731548
 30
0.0
 42
0.0195924520442988
  0
VERTEX
  5
11F
  8
SignTorch_CATTAIL003_
 10
6.660254959106444
 20
2.944246277385288
 30
0.0
 42
-0.0601311158178223
  0
VERTEX
  5
120
  8
SignTorch_CATTAIL003_
 10
6.628960913348656
 20
2.932145349234144
 30
0.0
 42
-0.3141105857088758
  0
VERTEX
  5
121
  8
SignTorch_CATTAIL003_
 10
6.622379959106445
 20
2.934621277385288
 30
0.0
 42
-0.1558870116394141
  0
VERTEX
  5
122
  8
SignTorch_CATTAIL003_
 10
6.612407891494079
 20
2.967680476750077
 30
0.0
 42
0.0082629514808072
  0
VERTEX
  5
123
  8
SignTorch_CATTAIL003_
 10
6.612379959106445
 20
3.104621277385288
 30
0.0
 42
-0.0015040554868961
  0
VERTEX
  5
124
  8
SignTorch_CATTAIL003_
 10
6.610374752112889
 20
3.250749388714457
 30
0.0
 42
-0.1616166880222682
  0
VERTEX
  5
125
  8
SignTorch_CATTAIL003_
 10
6.649379959106445
 20
3.372621277385288
 30
0.0
 42
-0.0835841637587745
  0
VERTEX
  5
126
  8
SignTorch_CATTAIL003_
 10
6.784460444497986
 20
3.504605279260499
 30
0.0
 42
-0.4502064237101779
  0
VERTEX
  5
127
  8
SignTorch_CATTAIL003_
 10
6.813504959106444
 20
3.497527527385288
 30
0.0
 42
-0.1149271692650163
  0
VERTEX
  5
128
  8
SignTorch_CATTAIL003_
 10
6.816204699267997
 20
3.487249454297932
 30
0.0
 42
-0.0212932451164602
  0
VERTEX
  5
129
  8
SignTorch_CATTAIL003_
 10
6.815379959106444
 20
3.430621277385288
 30
0.0
 42
0.0034230786833232
  0
VERTEX
  5
12A
  8
SignTorch_CATTAIL003_
 10
6.808602911396076
 20
3.295994392962389
 30
0.0
 42
0.0032616305619287
  0
SEQEND
  5
12B
  8
SignTorch_CATTAIL003_
  0
POLYLINE
  5
4C
  8
SignTorch_CATTAIL003_
 66
     1
 10
0.0
 20
0.0
 30
0.0
 70
     1
  0
VERTEX
  5
12C
  8
SignTorch_CATTAIL003_
 10
6.295379959106445
 20
2.818621277385287
 30
0.0
 42
-0.1185143921972795
  0
VERTEX
  5
12D
  8
SignTorch_CATTAIL003_
 10
6.284716091137261
 20
2.789203860730351
 30
0.0
 42
-0.4827622261385033
  0
VERTEX
  5
12E
  8
SignTorch_CATTAIL003_
 10
6.275411209106444
 20
2.788386902385287
 30
0.0
 42
-0.109656783775968
  0
VERTEX
  5
12F
  8
SignTorch_CATTAIL003_
 10
6.259870391481619
 20
2.814289129461711
 30
0.0
 42
-0.0246733305792031
  0
VERTEX
  5
130
  8
SignTorch_CATTAIL003_
 10
6.224129959106445
 20
2.942121277385287
 30
0.0
 42
-0.0365974435942838
  0
VERTEX
  5
131
  8
SignTorch_CATTAIL003_
 10
6.203017749451296
 20
3.081690823432209
 30
0.0
 42
-0.0208137979714962
  0
VERTEX
  5
132
  8
SignTorch_CATTAIL003_
 10
6.194254959106445
 20
3.329511902385287
 30
0.0
 42
-0.0068456106055639
  0
VERTEX
  5
133
  8
SignTorch_CATTAIL003_
 10
6.195358623946681
 20
3.38477629727256
 30
0.0
 42
-0.0479379239482416
  0
VERTEX
  5
134
  8
SignTorch_CATTAIL003_
 10
6.196379959106445
 20
3.392621277385288
 30
0.0
 42
-0.0544009009514217
  0
VERTEX
  5
135
  8
SignTorch_CATTAIL003_
 10
6.210653805498766
 20
3.433761735516166
 30
0.0
 42
-0.0159079225081219
  0
VERTEX
  5
136
  8
SignTorch_CATTAIL003_
 10
6.278504959106445
 20
3.565871277385287
 30
0.0
 42
-0.0165239440277945
  0
VERTEX
  5
137
  8
SignTorch_CATTAIL003_
 10
6.323118149207536
 20
3.64041147781599
 30
0.0
 42
-0.1070544709177246
  0
VERTEX
  5
138
  8
SignTorch_CATTAIL003_
 10
6.332708084106445
 20
3.649996277385287
 30
0.0
 42
-0.4756047381677757
  0
VERTEX
  5
139
  8
SignTorch_CATTAIL003_
 10
6.340212008177488
 20
3.647542413382027
 30
0.0
 42
-0.109778793821128
  0
VERTEX
  5
13A
  8
SignTorch_CATTAIL003_
 10
6.344379959106445
 20
3.619621277385287
 30
0.0
 42
0.0083188857754617
  0
VERTEX
  5
13B
  8
SignTorch_CATTAIL003_
 10
6.316296251429646
 20
3.098733064800126
 30
0.0
 42
-0.0186558691689371
  0
SEQEND
  5
13C
  8
SignTorch_CATTAIL003_
  0
POLYLINE
  5
4D
  8
SignTorch_CATTAIL003_
 66
     1
 10
0.0
 20
0.0
 30
0.0
 70
     1
  0
VERTEX
  5
13D
  8
SignTorch_CATTAIL003_
 10
6.464379959106445
 20
2.859621277385287
 30
0.0
 42
0.0106257311833725
  0
VERTEX
  5
13E
  8
SignTorch_CATTAIL003_
 10
6.480409856446997
 20
2.907144192449241
 30
0.0
 42
-0.7069872785262958
  0
VERTEX
  5
13F
  8
SignTorch_CATTAIL003_
 10
6.494989334106444
 20
2.907668152385288
 30
0.0
 42
-0.099844441623259
  0
VERTEX
  5
140
  8
SignTorch_CATTAIL003_
 10
6.502066065008371
 20
2.868079834533912
 30
0.0
 42
-0.1120231654662088
  0
VERTEX
  5
141
  8
SignTorch_CATTAIL003_
 10
6.477833084106445
 20
2.771261902385288
 30
0.0
 42
-0.1106008991324208
  0
VERTEX
  5
142
  8
SignTorch_CATTAIL003_
 10
6.437684841412371
 20
2.722486000157619
 30
0.0
 42
-0.6509376778657417
  0
VERTEX
  5
143
  8
SignTorch_CATTAIL003_
 10
6.424379959106445
 20
2.729621277385288
 30
0.0
 42
-0.0558004362458654
  0
VERTEX
  5
144
  8
SignTorch_CATTAIL003_
 10
6.428878763465016
 20
2.753396193693488
 30
0.0
 42
-0.0120195602722936
  0
SEQEND
  5
145
  8
SignTorch_CATTAIL003_
  0
POLYLINE
  5
4E
  8
SignTorch_CATTAIL003_
 66
     1
 10
0.0
 20
0.0
 30
0.0
 70
     1
  0
VERTEX
  5
146
  8
SignTorch_CATTAIL003_
 10
6.022379959106445
 20
2.865621277385288
 30
0.0
 42
-0.0522887169246864
  0
VERTEX
  5
147
  8
SignTorch_CATTAIL003_
 10
6.023117781348646
 20
2.949839093814894
 30
0.0
 42
-0.0802515545427311
  0
VERTEX
  5
148
  8
SignTorch_CATTAIL003_
 10
6.037989334106445
 20
3.002871277385288
 30
0.0
 42
-0.6763196376621784
  0
VERTEX
  5
149
  8
SignTorch_CATTAIL003_
 10
6.056290678015968
 20
3.001917322319169
 30
0.0
 42
-0.0263941110635342
  0
VERTEX
  5
14A
  8
SignTorch_CATTAIL003_
 10
6.067145584106445
 20
2.963683777385288
 30
0.0
 42
-0.0387970987591512
  0
VERTEX
  5
14B
  8
SignTorch_CATTAIL003_
 10
6.077576480462322
 20
2.892895179538407
 30
0.0
 42
-0.0191113071166225
  0
VERTEX
  5
14C
  8
SignTorch_CATTAIL003_
 10
6.082004959106445
 20
2.747871277385288
 30
0.0
 42
-0.018997852153744
  0
VERTEX
  5
14D
  8
SignTorch_CATTAIL003_
 10
6.080116211531677
 20
2.706554835827118
 30
0.0
 42
-0.5078393220676589
  0
VERTEX
  5
14E
  8
SignTorch_CATTAIL003_
 10
6.070379959106445
 20
2.700621277385288
 30
0.0
 42
-0.2128846492233317
  0
VERTEX
  5
14F
  8
SignTorch_CATTAIL003_
 10
6.055341622827662
 20
2.716481185771231
 30
0.0
 42
-0.0609719902996275
  0
SEQEND
  5
150
  8
SignTorch_CATTAIL003_
  0
POLYLINE
  5
4F
  8
SignTorch_CATTAIL003_
 66
     1
 10
0.0
 20
0.0
 30
0.0
 70
     1
  0
VERTEX
  5
151
  8
SignTorch_CATTAIL003_
 10
5.792379959106445
 20
2.909621277385288
 30
0.0
 42
-0.0445342719264198
  0
VERTEX
  5
152
  8
SignTorch_CATTAIL003_
 10
5.766574078884611
 20
3.140618415297843
 30
0.0
 42
-0.1081096167137956
  0
VERTEX
  5
153
  8
SignTorch_CATTAIL003_
 10
5.785129959106445
 20
3.235496277385288
 30
0.0
 42
-0.0480418614850996
  0
VERTEX
  5
154
  8
SignTorch_CATTAIL003_
 10
5.789678747031107
 20
3.243733840350516
 30
0.0
 42
-0.2497241736977857
  0
VERTEX
  5
155
  8
SignTorch_CATTAIL003_
 10
5.791379959106445
 20
3.244621277385288
 30
0.0
 42
-0.3421259243633876
  0
VERTEX
  5
156
  8
SignTorch_CATTAIL003_
 10
5.798705377487783
 20
3.238842600832157
 30
0.0
 42
0.0006094034340781
  0
VERTEX
  5
157
  8
SignTorch_CATTAIL003_
 10
5.807364334106444
 20
3.204183777385288
 30
0.0
 42
-0.0256519793506787
  0
VERTEX
  5
158
  8
SignTorch_CATTAIL003_
 10
5.831316222000427
 20
3.082753852788473
 30
0.0
 42
0.009684346021794
  0
VERTEX
  5
159
  8
SignTorch_CATTAIL003_
 10
5.851379959106445
 20
2.960621277385288
 30
0.0
 42
-0.0208170533843391
  0
VERTEX
  5
15A
  8
SignTorch_CATTAIL003_
 10
5.8639982523006
 20
2.871444258229585
 30
0.0
 42
-0.0685879735706176
  0
VERTEX
  5
15B
  8
SignTorch_CATTAIL003_
 10
5.861379959106444
 20
2.802621277385288
 30
0.0
 42
0.0042042059695366
  0
VERTEX
  5
15C
  8
SignTorch_CATTAIL003_
 10
5.849348862872482
 20
2.731065827583713
 30
0.0
 42
-0.7612505285757917
  0
VERTEX
  5
15D
  8
SignTorch_CATTAIL003_
 10
5.827895584106445
 20
2.728668152385287
 30
0.0
 42
-0.0642383435890443
  0
VERTEX
  5
15E
  8
SignTorch_CATTAIL003_
 10
5.811753930234624
 20
2.791238495431978
 30
0.0
 42
0.0190254441721334
  0
SEQEND
  5
15F
  8
SignTorch_CATTAIL003_
  0
POLYLINE
  5
50
  8
SignTorch_CATTAIL003_
 66
     1
 10
0.0
 20
0.0
 30
0.0
 70
     1
  0
VERTEX
  5
160
  8
SignTorch_CATTAIL003_
 10
5.348879959106445
 20
3.554871277385288
 30
0.0
 42
0.0112933521274907
  0
VERTEX
  5
161
  8
SignTorch_CATTAIL003_
 10
5.278987573498978
 20
3.807070011101713
 30
0.0
 42
-0.0138391114375936
  0
VERTEX
  5
162
  8
SignTorch_CATTAIL003_
 10
5.210379959106445
 20
4.059621277385288
 30
0.0
 42
-0.0732575657561881
  0
VERTEX
  5
163
  8
SignTorch_CATTAIL003_
 10
5.207017181564471
 20
4.096340393497613
 30
0.0
 42
-0.4666008972293029
  0
VERTEX
  5
164
  8
SignTorch_CATTAIL003_
 10
5.212629959106445
 20
4.100543152385288
 30
0.0
 42
-0.1651630848503197
  0
VERTEX
  5
165
  8
SignTorch_CATTAIL003_
 10
5.228567103841065
 20
4.090600263822176
 30
0.0
 42
-0.0287364951505544
  0
VERTEX
  5
166
  8
SignTorch_CATTAIL003_
 10
5.290379959106445
 20
4.005496277385287
 30
0.0
 42
-0.0763168907998595
  0
VERTEX
  5
167
  8
SignTorch_CATTAIL003_
 10
5.485390394323067
 20
3.566904634464125
 30
0.0
 42
-0.0300863532796699
  0
VERTEX
  5
168
  8
SignTorch_CATTAIL003_
 10
5.547192459106445
 20
3.270980652385287
 30
0.0
 42
-0.009119786553922
  0
VERTEX
  5
169
  8
SignTorch_CATTAIL003_
 10
5.602793688763036
 20
2.83722900714601
 30
0.0
 42
-0.0456055348575914
  0
VERTEX
  5
16A
  8
SignTorch_CATTAIL003_
 10
5.604379959106445
 20
2.749621277385288
 30
0.0
 42
-0.0377041227201316
  0
VERTEX
  5
16B
  8
SignTorch_CATTAIL003_
 10
5.598240543915082
 20
2.70855916937944
 30
0.0
 42
-0.2228558199492351
  0
VERTEX
  5
16C
  8
SignTorch_CATTAIL003_
 10
5.59371275037445
 20
2.70275319807754
 30
0.0
 42
-0.3182104017075278
  0
VERTEX
  5
16D
  8
SignTorch_CATTAIL003_
 10
5.590215563624948
 20
2.703268304655479
 30
0.0
 42
-0.0888666868674244
  0
VERTEX
  5
16E
  8
SignTorch_CATTAIL003_
 10
5.583379959106446
 20
2.712621277385288
 30
0.0
 42
-0.0411975818891772
  0
VERTEX
  5
16F
  8
SignTorch_CATTAIL003_
 10
5.543103904497473
 20
2.815997464966852
 30
0.0
 42
-0.0105367856823151
  0
VERTEX
  5
170
  8
SignTorch_CATTAIL003_
 10
5.428379959106445
 20
3.233621277385287
 30
0.0
 42
-0.0023044648505951
  0
VERTEX
  5
171
  8
SignTorch_CATTAIL003_
 10
5.388659722565408
 20
3.394253642972798
 30
0.0
 42
0.0024897637127195
  0
SEQEND
  5
172
  8
SignTorch_CATTAIL003_
  0
POLYLINE
  5
51
  8
SignTorch_CATTAIL003_
 66
     1
 10
0.0
 20
0.0
 30
0.0
 70
     1
  0
VERTEX
  5
173
  8
SignTorch_CATTAIL003_
 10
4.945379959106445
 20
3.170621277385288
 30
0.0
 42
0.0277177216095894
  0
VERTEX
  5
174
  8
SignTorch_CATTAIL003_
 10
4.757201775407618
 20
3.391788401812702
 30
0.0
 42
0.0559374526193426
  0
VERTEX
  5
175
  8
SignTorch_CATTAIL003_
 10
4.529549880981445
 20
3.583006043010288
 30
0.0
 42
0.0716477231676343
  0
VERTEX
  5
176
  8
SignTorch_CATTAIL003_
 10
4.159539094117755
 20
3.758931902649426
 30
0.0
 42
0.1764464435587105
  0
VERTEX
  5
177
  8
SignTorch_CATTAIL003_
 10
3.787629959106445
 20
3.740871277385287
 30
0.0
 42
0.1445108607851619
  0
VERTEX
  5
178
  8
SignTorch_CATTAIL003_
 10
3.686175028210092
 20
3.658010536033662
 30
0.0
 42
0.5488161408865743
  0
VERTEX
  5
179
  8
SignTorch_CATTAIL003_
 10
3.698504959106445
 20
3.629246277385287
 30
0.0
 42
0.2170217428428156
  0
VERTEX
  5
17A
  8
SignTorch_CATTAIL003_
 10
3.755587327809809
 20
3.644764952950821
 30
0.0
 42
-0.2239399969365098
  0
VERTEX
  5
17B
  8
SignTorch_CATTAIL003_
 10
3.984711990356445
 20
3.703820496135287
 30
0.0
 42
-0.081795259570408
  0
VERTEX
  5
17C
  8
SignTorch_CATTAIL003_
 10
4.336114978691856
 20
3.574917307672234
 30
0.0
 42
-0.0963499570112936
  0
VERTEX
  5
17D
  8
SignTorch_CATTAIL003_
 10
4.761924880981445
 20
3.211197449260288
 30
0.0
 42
-0.0342753283572297
  0
VERTEX
  5
17E
  8
SignTorch_CATTAIL003_
 10
5.001526859770311
 20
2.863401409952795
 30
0.0
 42
-0.0272977865745127
  0
VERTEX
  5
17F
  8
SignTorch_CATTAIL003_
 10
5.401379959106444
 20
2.095621277385288
 30
0.0
 42
-0.031568975143012
  0
VERTEX
  5
180
  8
SignTorch_CATTAIL003_
 10
5.453922439975188
 20
1.957057823621995
 30
0.0
 42
-0.0334237102526523
  0
VERTEX
  5
181
  8
SignTorch_CATTAIL003_
 10
5.486176834106445
 20
1.820840027385287
 30
0.0
 42
0.0224661722341654
  0
VERTEX
  5
182
  8
SignTorch_CATTAIL003_
 10
5.521937120459004
 20
1.653560466842338
 30
0.0
 42
-0.1174984524185916
  0
VERTEX
  5
183
  8
SignTorch_CATTAIL003_
 10
5.522864334106445
 20
1.610652527385288
 30
0.0
 42
-0.7433983967371477
  0
VERTEX
  5
184
  8
SignTorch_CATTAIL003_
 10
5.502750179884433
 20
1.609040911881879
 30
0.0
 42
0.0398183150097966
  0
VERTEX
  5
185
  8
SignTorch_CATTAIL003_
 10
5.472379959106444
 20
1.671621277385288
 30
0.0
 42
0.0013954023090593
  0
VERTEX
  5
186
  8
SignTorch_CATTAIL003_
 10
5.099875554934258
 20
2.301300902569808
 30
0.0
 42
0.0671657874437548
  0
VERTEX
  5
187
  8
SignTorch_CATTAIL003_
 10
4.692254959106445
 20
2.814621277385288
 30
0.0
 42
0.1115767763246696
  0
VERTEX
  5
188
  8
SignTorch_CATTAIL003_
 10
4.31023827239711
 20
3.045334246349396
 30
0.0
 42
0.1492641725397303
  0
VERTEX
  5
189
  8
SignTorch_CATTAIL003_
 10
3.973503005981446
 20
3.053664246135288
 30
0.0
 42
0.0954803392621513
  0
VERTEX
  5
18A
  8
SignTorch_CATTAIL003_
 10
3.688829641719841
 20
2.911916384404378
 30
0.0
 42
0.110378756830689
  0
VERTEX
  5
18B
  8
SignTorch_CATTAIL003_
 10
3.511379959106445
 20
2.700621277385288
 30
0.0
 42
0.1532810191968429
  0
VERTEX
  5
18C
  8
SignTorch_CATTAIL003_
 10
3.504375892267494
 20
2.660889706640159
 30
0.0
 42
0.3780812845418043
  0
VERTEX
  5
18D
  8
SignTorch_CATTAIL003_
 10
3.518129959106445
 20
2.648871277385288
 30
0.0
 42
0.2588806156220038
  0
VERTEX
  5
18E
  8
SignTorch_CATTAIL003_
 10
3.567077615903842
 20
2.676342034147949
 30
0.0
 42
-0.0850510397937412
  0
VERTEX
  5
18F
  8
SignTorch_CATTAIL003_
 10
3.713850662231445
 20
2.842869324260288
 30
0.0
 42
-0.1000609065605966
  0
VERTEX
  5
190
  8
SignTorch_CATTAIL003_
 10
3.93112637572177
 20
2.955768797903841
 30
0.0
 42
-0.109172090428475
  0
VERTEX
  5
191
  8
SignTorch_CATTAIL003_
 10
4.155536209106446
 20
2.969761902385288
 30
0.0
 42
-0.1700932154217488
  0
VERTEX
  5
192
  8
SignTorch_CATTAIL003_
 10
4.605462330207356
 20
2.728521142044867
 30
0.0
 42
-0.0523654224716536
  0
VERTEX
  5
193
  8
SignTorch_CATTAIL003_
 10
4.996629959106445
 20
2.199871277385288
 30
0.0
 42
-0.0231219564128735
  0
VERTEX
  5
194
  8
SignTorch_CATTAIL003_
 10
5.185995719899745
 20
1.841538947292583
 30
0.0
 42
-0.0185495888114072
  0
VERTEX
  5
195
  8
SignTorch_CATTAIL003_
 10
5.384004959106445
 20
1.376871277385288
 30
0.0
 42
0.0027602195868364
  0
VERTEX
  5
196
  8
SignTorch_CATTAIL003_
 10
5.479264582523706
 20
1.132180454424506
 30
0.0
 42
-0.1244349428958711
  0
VERTEX
  5
197
  8
SignTorch_CATTAIL003_
 10
5.487770584106445
 20
1.066699402385288
 30
0.0
 42
0.0217421456745542
  0
VERTEX
  5
198
  8
SignTorch_CATTAIL003_
 10
5.482587973660704
 20
0.9976747806601957
 30
0.0
 42
0.0067488187951877
  0
VERTEX
  5
199
  8
SignTorch_CATTAIL003_
 10
5.478583084106444
 20
0.7748087773852878
 30
0.0
 42
0.0909150504507512
  0
VERTEX
  5
19A
  8
SignTorch_CATTAIL003_
 10
5.491245354788678
 20
0.7039623572247974
 30
0.0
 42
0.3655997102244773
  0
VERTEX
  5
19B
  8
SignTorch_CATTAIL003_
 10
5.536379959106445
 20
0.6786212773852878
 30
0.0
 42
0.1484642355977444
  0
VERTEX
  5
19C
  8
SignTorch_CATTAIL003_
 10
5.585683439075783
 20
0.7045521886156376
 30
0.0
 42
-0.3992794689458561
  0
VERTEX
  5
19D
  8
SignTorch_CATTAIL003_
 10
5.641379959106445
 20
0.7056212773852878
 30
0.0
 42
0.230234696181374
  0
VERTEX
  5
19E
  8
SignTorch_CATTAIL003_
 10
5.688703341215976
 20
0.6916026435000626
 30
0.0
 42
0.2641208548956642
  0
VERTEX
  5
19F
  8
SignTorch_CATTAIL003_
 10
5.722661209106445
 20
0.7191212773852877
 30
0.0
 42
0.1316322112250363
  0
VERTEX
  5
1A0
  8
SignTorch_CATTAIL003_
 10
5.729490415339935
 20
0.7800865489165065
 30
0.0
 42
-0.0680306751380724
  0
VERTEX
  5
1A1
  8
SignTorch_CATTAIL003_
 10
5.725973709106444
 20
1.025058777385288
 30
0.0
 42
0.0302584417899644
  0
VERTEX
  5
1A2
  8
SignTorch_CATTAIL003_
 10
5.728924590817022
 20
1.073374619723898
 30
0.0
 42
-0.0763978649884631
  0
VERTEX
  5
1A3
  8
SignTorch_CATTAIL003_
 10
5.736301834106444
 20
1.121215027385288
 30
0.0
 42
-0.7149515611408415
  0
VERTEX
  5
1A4
  8
SignTorch_CATTAIL003_
 10
5.752292306207718
 20
1.121597531819839
 30
0.0
 42
-0.0045090616225571
  0
VERTEX
  5
1A5
  8
SignTorch_CATTAIL003_
 10
5.758379959106445
 20
1.104621277385288
 30
0.0
 42
-0.0412467978150363
  0
VERTEX
  5
1A6
  8
SignTorch_CATTAIL003_
 10
5.799655337447716
 20
0.9448738318270554
 30
0.0
 42
0.0315558477786879
  0
VERTEX
  5
1A7
  8
SignTorch_CATTAIL003_
 10
5.870551834106445
 20
0.6467775273852878
 30
0.0
 42
0.0943647177301098
  0
VERTEX
  5
1A8
  8
SignTorch_CATTAIL003_
 10
5.93271670381243
 20
0.5287439040109115
 30
0.0
 42
0.3090216561734243
  0
VERTEX
  5
1A9
  8
SignTorch_CATTAIL003_
 10
5.97499446105957
 20
0.5157379766040378
 30
0.0
 42
0.1853497258558672
  0
VERTEX
  5
1AA
  8
SignTorch_CATTAIL003_
 10
6.012928663821278
 20
0.5456388684129808
 30
0.0
 42
0.154896773574132
  0
VERTEX
  5
1AB
  8
SignTorch_CATTAIL003_
 10
6.045379959106445
 20
0.6846212773852878
 30
0.0
 42
0.0320200443914292
  0
VERTEX
  5
1AC
  8
SignTorch_CATTAIL003_
 10
6.023367784688395
 20
0.8386078939295794
 30
0.0
 42
-0.0125475622344706
  0
VERTEX
  5
1AD
  8
SignTorch_CATTAIL003_
 10
5.995379959106445
 20
0.9916212773852877
 30
0.0
 42
0.0154211909789832
  0
VERTEX
  5
1AE
  8
SignTorch_CATTAIL003_
 10
5.941764135775664
 20
1.27551970720597
 30
0.0
 42
0.0203420211518198
  0
VERTEX
  5
1AF
  8
SignTorch_CATTAIL003_
 10
5.885833084106445
 20
1.487324402385288
 30
0.0
 42
0.0074981250010736
  0
VERTEX
  5
1B0
  8
SignTorch_CATTAIL003_
 10
5.8232291884657
 20
1.680202321197123
 30
0.0
 42
-0.1032984125028362
  0
VERTEX
  5
1B1
  8
SignTorch_CATTAIL003_
 10
5.805254959106445
 20
1.825621277385288
 30
0.0
 42
-0.0215579585390776
  0
VERTEX
  5
1B2
  8
SignTorch_CATTAIL003_
 10
5.824263224265048
 20
1.975685448756658
 30
0.0
 42
-0.0064769564272487
  0
VERTEX
  5
1B3
  8
SignTorch_CATTAIL003_
 10
5.915379959106446
 20
2.470621277385288
 30
0.0
 42
0.0534709817122602
  0
VERTEX
  5
1B4
  8
SignTorch_CATTAIL003_
 10
5.917687532868727
 20
2.496724380219114
 30
0.0
 42
-0.8161824725232524
  0
VERTEX
  5
1B5
  8
SignTorch_CATTAIL003_
 10
5.936754959106445
 20
2.500996277385288
 30
0.0
 42
-0.0518947583388827
  0
VERTEX
  5
1B6
  8
SignTorch_CATTAIL003_
 10
5.938115610576795
 20
2.496868832407194
 30
0.0
 42
-0.008402660995995
  0
VERTEX
  5
1B7
  8
SignTorch_CATTAIL003_
 10
5.943379959106445
 20
2.470621277385288
 30
0.0
 42
-0.0145727931105069
  0
VERTEX
  5
1B8
  8
SignTorch_CATTAIL003_
 10
5.991841711474881
 20
2.154233275547419
 30
0.0
 42
0.0102017874595965
  0
VERTEX
  5
1B9
  8
SignTorch_CATTAIL003_
 10
6.037536209106445
 20
1.837433777385288
 30
0.0
 42
-0.0166908491686817
  0
VERTEX
  5
1BA
  8
SignTorch_CATTAIL003_
 10
6.052185705244939
 20
1.725619413491269
 30
0.0
 42
-0.042419775841326
  0
VERTEX
  5
1BB
  8
SignTorch_CATTAIL003_
 10
6.052723709106445
 20
1.681183777385288
 30
0.0
 42
-0.0287794815333925
  0
VERTEX
  5
1BC
  8
SignTorch_CATTAIL003_
 10
6.028081223406121
 20
1.49302446830961
 30
0.0
 42
0.080528715515733
  0
VERTEX
  5
1BD
  8
SignTorch_CATTAIL003_
 10
6.018551834106445
 20
1.140918152385288
 30
0.0
 42
0.0357154618796993
  0
VERTEX
  5
1BE
  8
SignTorch_CATTAIL003_
 10
6.048392267851217
 20
0.9974386664417937
 30
0.0
 42
0.0836874230104623
  0
VERTEX
  5
1BF
  8
SignTorch_CATTAIL003_
 10
6.075379959106445
 20
0.9406212773852878
 30
0.0
 42
-0.1096230121485922
  0
VERTEX
  5
1C0
  8
SignTorch_CATTAIL003_
 10
6.097099684132562
 20
0.8880890803298434
 30
0.0
 42
0.5500075856501829
  0
VERTEX
  5
1C1
  8
SignTorch_CATTAIL003_
 10
6.149645584106445
 20
0.8664025273852878
 30
0.0
 42
0.1323992698380888
  0
VERTEX
  5
1C2
  8
SignTorch_CATTAIL003_
 10
6.168714355691321
 20
0.8893543589128039
 30
0.0
 42
-0.0011533465770731
  0
VERTEX
  5
1C3
  8
SignTorch_CATTAIL003_
 10
6.218379959106445
 20
0.9969962773852877
 30
0.0
 42
0.0771323176563449
  0
VERTEX
  5
1C4
  8
SignTorch_CATTAIL003_
 10
6.242617707691966
 20
1.081083651699315
 30
0.0
 42
0.0185945921363347
  0
VERTEX
  5
1C5
  8
SignTorch_CATTAIL003_
 10
6.274879959106444
 20
1.440621277385288
 30
0.0
 42
-0.0089250722324134
  0
VERTEX
  5
1C6
  8
SignTorch_CATTAIL003_
 10
6.294101619436554
 20
1.714149516711486
 30
0.0
 42
-0.0290286548545011
  0
VERTEX
  5
1C7
  8
SignTorch_CATTAIL003_
 10
6.306379959106444
 20
1.797621277385288
 30
0.0
 42
-0.116915779866082
  0
VERTEX
  5
1C8
  8
SignTorch_CATTAIL003_
 10
6.319142938597176
 20
1.824953612678288
 30
0.0
 42
-0.5077947813334722
  0
VERTEX
  5
1C9
  8
SignTorch_CATTAIL003_
 10
6.327754959106445
 20
1.824621277385288
 30
0.0
 42
-0.1319156837290711
  0
VERTEX
  5
1CA
  8
SignTorch_CATTAIL003_
 10
6.342761471676391
 20
1.780835683525154
 30
0.0
 42
0.0222706612484662
  0
VERTEX
  5
1CB
  8
SignTorch_CATTAIL003_
 10
6.352379959106444
 20
1.695621277385288
 30
0.0
 42
0.0203039241689757
  0
VERTEX
  5
1CC
  8
SignTorch_CATTAIL003_
 10
6.428808155914798
 20
1.313756121109404
 30
0.0
 42
-0.1005337184545559
  0
VERTEX
  5
1CD
  8
SignTorch_CATTAIL003_
 10
6.432491287231445
 20
1.216216980510288
 30
0.0
 42
-0.0483528923000332
  0
VERTEX
  5
1CE
  8
SignTorch_CATTAIL003_
 10
6.402816380445811
 20
1.104342968138438
 30
0.0
 42
0.0718717103376107
  0
VERTEX
  5
1CF
  8
SignTorch_CATTAIL003_
 10
6.357504959106445
 20
0.8942462773852877
 30
0.0
 42
0.0673368380494387
  0
VERTEX
  5
1D0
  8
SignTorch_CATTAIL003_
 10
6.361292420207764
 20
0.836550646733302
 30
0.0
 42
0.6196997322768677
  0
VERTEX
  5
1D1
  8
SignTorch_CATTAIL003_
 10
6.421114334106444
 20
0.8205587773852878
 30
0.0
 42
0.0659594961836622
  0
VERTEX
  5
1D2
  8
SignTorch_CATTAIL003_
 10
6.433064987173051
 20
0.8383793695620083
 30
0.0
 42
0.0111788578020054
  0
VERTEX
  5
1D3
  8
SignTorch_CATTAIL003_
 10
6.486379959106444
 20
0.9526212773852877
 30
0.0
 42
-0.0876098430757201
  0
VERTEX
  5
1D4
  8
SignTorch_CATTAIL003_
 10
6.499904244056502
 20
0.9728613551768606
 30
0.0
 42
-0.5212891150015776
  0
VERTEX
  5
1D5
  8
SignTorch_CATTAIL003_
 10
6.515129959106444
 20
0.9704962773852877
 30
0.0
 42
-0.067537315155444
  0
VERTEX
  5
1D6
  8
SignTorch_CATTAIL003_
 10
6.535634039783937
 20
0.9087796374827251
 30
0.0
 42
0.0097732163662379
  0
VERTEX
  5
1D7
  8
SignTorch_CATTAIL003_
 10
6.560254959106445
 20
0.7906212773852878
 30
0.0
 42
0.0204236430342954
  0
VERTEX
  5
1D8
  8
SignTorch_CATTAIL003_
 10
6.588531087536702
 20
0.6867654264014021
 30
0.0
 42
0.4766943686218008
  0
VERTEX
  5
1D9
  8
SignTorch_CATTAIL003_
 10
6.683348709106445
 20
0.6495001836352877
 30
0.0
 42
0.2849666871912248
  0
VERTEX
  5
1DA
  8
SignTorch_CATTAIL003_
 10
6.716077867806674
 20
0.7093543364229836
 30
0.0
 42
-0.0015173396413523
  0
VERTEX
  5
1DB
  8
SignTorch_CATTAIL003_
 10
6.702379959106445
 20
0.9736212773852877
 30
0.0
 42
-0.0027258166896885
  0
VERTEX
  5
1DC
  8
SignTorch_CATTAIL003_
 10
6.691292514338106
 20
1.229516605777604
 30
0.0
 42
0.0086751731179134
  0
VERTEX
  5
1DD
  8
SignTorch_CATTAIL003_
 10
6.677161209106445
 20
1.485261902385288
 30
0.0
 42
-0.073960632661288
  0
VERTEX
  5
1DE
  8
SignTorch_CATTAIL003_
 10
6.689584101271613
 20
1.650361603870562
 30
0.0
 42
-0.0021610616351602
  0
VERTEX
  5
1DF
  8
SignTorch_CATTAIL003_
 10
6.784379959106445
 20
2.060621277385288
 30
0.0
 42
0.0142314144738862
  0
VERTEX
  5
1E0
  8
SignTorch_CATTAIL003_
 10
6.887761068813992
 20
2.563028231617492
 30
0.0
 42
0.0318703214223857
  0
VERTEX
  5
1E1
  8
SignTorch_CATTAIL003_
 10
6.913098709106445
 20
2.790855652385288
 30
0.0
 42
-0.0065622577908841
  0
VERTEX
  5
1E2
  8
SignTorch_CATTAIL003_
 10
6.917808238333346
 20
2.869039002095044
 30
0.0
 42
-0.4299079946331035
  0
VERTEX
  5
1E3
  8
SignTorch_CATTAIL003_
 10
6.941754959106444
 20
2.888621277385288
 30
0.0
 42
-0.1352287857030128
  0
VERTEX
  5
1E4
  8
SignTorch_CATTAIL003_
 10
7.007521997418298
 20
2.861171279268368
 30
0.0
 42
-0.1231634390519323
  0
VERTEX
  5
1E5
  8
SignTorch_CATTAIL003_
 10
7.131520584106445
 20
2.701886902385287
 30
0.0
 42
-0.0962392433267054
  0
VERTEX
  5
1E6
  8
SignTorch_CATTAIL003_
 10
7.23194434527815
 20
2.262097569362313
 30
0.0
 42
0.0613472325297234
  0
VERTEX
  5
1E7
  8
SignTorch_CATTAIL003_
 10
7.249379959106445
 20
2.150621277385288
 30
0.0
 42
0.1527629436874873
  0
VERTEX
  5
1E8
  8
SignTorch_CATTAIL003_
 10
7.279283653682851
 20
2.105065264751785
 30
0.0
 42
0.4217799986642464
  0
VERTEX
  5
1E9
  8
SignTorch_CATTAIL003_
 10
7.301860427856445
 20
2.107593933635288
 30
0.0
 42
0.1880271602766011
  0
VERTEX
  5
1EA
  8
SignTorch_CATTAIL003_
 10
7.311432257125643
 20
2.139756160720199
 30
0.0
 42
-0.0046662325482775
  0
VERTEX
  5
1EB
  8
SignTorch_CATTAIL003_
 10
7.301754959106445
 20
2.271871277385288
 30
0.0
 42
0.0790353677155813
  0
VERTEX
  5
1EC
  8
SignTorch_CATTAIL003_
 10
7.180184203327483
 20
2.811645364308335
 30
0.0
 42
0.1869388779896423
  0
VERTEX
  5
1ED
  8
SignTorch_CATTAIL003_
 10
7.016379959106445
 20
2.987871277385287
 30
0.0
 42
0.0319651023397564
  0
VERTEX
  5
1EE
  8
SignTorch_CATTAIL003_
 10
6.949966896641018
 20
3.015046008952427
 30
0.0
 42
-0.2907053763510035
  0
VERTEX
  5
1EF
  8
SignTorch_CATTAIL003_
 10
6.920473709106445
 20
3.051480652385287
 30
0.0
 42
-0.0758517804938642
  0
VERTEX
  5
1F0
  8
SignTorch_CATTAIL003_
 10
6.921968573187693
 20
3.092157112127207
 30
0.0
 42
0.0397992315051258
  0
VERTEX
  5
1F1
  8
SignTorch_CATTAIL003_
 10
6.926379959106445
 20
3.132621277385288
 30
0.0
 42
0.0094319231427546
  0
VERTEX
  5
1F2
  8
SignTorch_CATTAIL003_
 10
6.928152978163907
 20
3.306937082339054
 30
0.0
 42
-0.0044146193010268
  0
VERTEX
  5
1F3
  8
SignTorch_CATTAIL003_
 10
6.928176834106445
 20
3.481261902385288
 30
0.0
 42
-0.1500441775987711
  0
VERTEX
  5
1F4
  8
SignTorch_CATTAIL003_
 10
6.938644316090286
 20
3.514299198773085
 30
0.0
 42
-0.2596518370639844
  0
VERTEX
  5
1F5
  8
SignTorch_CATTAIL003_
 10
6.957395584106445
 20
3.523543152385288
 30
0.0
 42
-0.1572784603340109
  0
VERTEX
  5
1F6
  8
SignTorch_CATTAIL003_
 10
7.065827329220411
 20
3.482472551654033
 30
0.0
 42
-0.0868276021086396
  0
VERTEX
  5
1F7
  8
SignTorch_CATTAIL003_
 10
7.202536209106445
 20
3.327699402385288
 30
0.0
 42
-0.0334566776321876
  0
VERTEX
  5
1F8
  8
SignTorch_CATTAIL003_
 10
7.242047966061703
 20
3.252429270592582
 30
0.0
 42
0.0224560678711584
  0
VERTEX
  5
1F9
  8
SignTorch_CATTAIL003_
 10
7.279895584106445
 20
3.176308777385287
 30
0.0
 42
0.0734557298965679
  0
VERTEX
  5
1FA
  8
SignTorch_CATTAIL003_
 10
7.303143019850763
 20
3.145915622965788
 30
0.0
 42
-0.5375289335471012
  0
VERTEX
  5
1FB
  8
SignTorch_CATTAIL003_
 10
7.299176834106445
 20
3.124933777385287
 30
0.0
 42
-0.1480756597352023
  0
VERTEX
  5
1FC
  8
SignTorch_CATTAIL003_
 10
7.248833611726468
 20
3.119703536831559
 30
0.0
 42
0.607913373653687
  0
VERTEX
  5
1FD
  8
SignTorch_CATTAIL003_
 10
7.231379959106444
 20
3.097621277385288
 30
0.0
 42
0.21932154975465
  0
VERTEX
  5
1FE
  8
SignTorch_CATTAIL003_
 10
7.256650017149218
 20
3.075662128394097
 30
0.0
 42
-0.2109857793913233
  0
VERTEX
  5
1FF
  8
SignTorch_CATTAIL003_
 10
7.359114334106445
 20
2.989449402385288
 30
0.0
 42
-0.100597476681847
  0
VERTEX
  5
200
  8
SignTorch_CATTAIL003_
 10
7.399930947124808
 20
2.832822517799959
 30
0.0
 42
0.0265426677685459
  0
VERTEX
  5
201
  8
SignTorch_CATTAIL003_
 10
7.417294021606445
 20
2.671898621135288
 30
0.0
 42
0.0577783852631221
  0
VERTEX
  5
202
  8
SignTorch_CATTAIL003_
 10
7.431768355946218
 20
2.620790265134665
 30
0.0
 42
0.5994766915824501
  0
VERTEX
  5
203
  8
SignTorch_CATTAIL003_
 10
7.460317459106444
 20
2.617945496135288
 30
0.0
 42
0.1426082265891385
  0
VERTEX
  5
204
  8
SignTorch_CATTAIL003_
 10
7.465736493858749
 20
2.635054583031031
 30
0.0
 42
0.022093006589396
  0
VERTEX
  5
205
  8
SignTorch_CATTAIL003_
 10
7.463379959106446
 20
2.748621277385288
 30
0.0
 42
0.0245738214925808
  0
VERTEX
  5
206
  8
SignTorch_CATTAIL003_
 10
7.453097185718399
 20
2.838379264560857
 30
0.0
 42
-0.0940873019953978
  0
VERTEX
  5
207
  8
SignTorch_CATTAIL003_
 10
7.454286209106445
 20
2.887058777385287
 30
0.0
 42
-0.5981326068438266
  0
VERTEX
  5
208
  8
SignTorch_CATTAIL003_
 10
7.470553173820083
 20
2.891748088996871
 30
0.0
 42
-0.0858309977942154
  0
VERTEX
  5
209
  8
SignTorch_CATTAIL003_
 10
7.520129959106445
 20
2.819611511760288
 30
0.0
 42
-0.0769693033409533
  0
VERTEX
  5
20A
  8
SignTorch_CATTAIL003_
 10
7.601706125369604
 20
2.532954284438082
 30
0.0
 42
0.0092753186652858
  0
VERTEX
  5
20B
  8
SignTorch_CATTAIL003_
 10
7.668379959106446
 20
2.067121277385288
 30
0.0
 42
0.0104829412062615
  0
VERTEX
  5
20C
  8
SignTorch_CATTAIL003_
 10
7.697725211631335
 20
1.907378804673665
 30
0.0
 42
-0.0365604552867378
  0
VERTEX
  5
20D
  8
SignTorch_CATTAIL003_
 10
7.718708084106445
 20
1.746324402385288
 30
0.0
 42
-0.0263291863657633
  0
VERTEX
  5
20E
  8
SignTorch_CATTAIL003_
 10
7.719881191519455
 20
1.439235973329385
 30
0.0
 42
0.0189483188085969
  0
VERTEX
  5
20F
  8
SignTorch_CATTAIL003_
 10
7.713645584106446
 20
0.8689650273852876
 30
0.0
 42
0.026434227593542
  0
VERTEX
  5
210
  8
SignTorch_CATTAIL003_
 10
7.720915230967425
 20
0.7780764160064215
 30
0.0
 42
0.5273043895824086
  0
VERTEX
  5
211
  8
SignTorch_CATTAIL003_
 10
7.799206130981445
 20
0.7385411992602877
 30
0.0
 42
0.3330331801964908
  0
VERTEX
  5
212
  8
SignTorch_CATTAIL003_
 10
7.834049025905988
 20
0.8155372641073445
 30
0.0
 42
-0.2123022374056862
  0
VERTEX
  5
213
  8
SignTorch_CATTAIL003_
 10
7.843129959106445
 20
0.8602462773852877
 30
0.0
 42
-0.0882532896217598
  0
VERTEX
  5
214
  8
SignTorch_CATTAIL003_
 10
7.864049727397805
 20
0.8807751478964954
 30
0.0
 42
-0.0743878869355412
  0
VERTEX
  5
215
  8
SignTorch_CATTAIL003_
 10
7.895269607543944
 20
0.8959105840259126
 30
0.0
 42
-0.3776223087412374
  0
VERTEX
  5
216
  8
SignTorch_CATTAIL003_
 10
7.916251322252572
 20
0.8865602778125425
 30
0.0
 42
0.0376353180655514
  0
VERTEX
  5
217
  8
SignTorch_CATTAIL003_
 10
7.958840896606445
 20
0.8094591680102877
 30
0.0
 42
0.135320925048314
  0
VERTEX
  5
218
  8
SignTorch_CATTAIL003_
 10
7.995262563120858
 20
0.7773935367280178
 30
0.0
 42
0.202402373406197
  0
VERTEX
  5
219
  8
SignTorch_CATTAIL003_
 10
8.028379959106445
 20
0.7756212773852877
 30
0.0
 42
0.0349057917989229
  0
VERTEX
  5
21A
  8
SignTorch_CATTAIL003_
 10
8.064767236948231
 20
0.7916847753062459
 30
0.0
 42
-0.0772764754442225
  0
VERTEX
  5
21B
  8
SignTorch_CATTAIL003_
 10
8.102379959106445
 20
0.8046212773852878
 30
0.0
 42
0.3388763626394156
  0
VERTEX
  5
21C
  8
SignTorch_CATTAIL003_
 10
8.150384518884959
 20
0.8571617753279619
 30
0.0
 42
-0.3503733307778694
  0
VERTEX
  5
21D
  8
SignTorch_CATTAIL003_
 10
8.176809646606445
 20
0.8849161992602876
 30
0.0
 42
-0.0849444776187778
  0
VERTEX
  5
21E
  8
SignTorch_CATTAIL003_
 10
8.210555323902453
 20
0.8837829791017084
 30
0.0
 42
0.2056121598210457
  0
VERTEX
  5
21F
  8
SignTorch_CATTAIL003_
 10
8.243629959106446
 20
0.8905744023852877
 30
0.0
 42
0.1366461995313439
  0
VERTEX
  5
220
  8
SignTorch_CATTAIL003_
 10
8.288966393131172
 20
0.9453831626336962
 30
0.0
 42
0.0488143820779949
  0
VERTEX
  5
221
  8
SignTorch_CATTAIL003_
 10
8.350958084106445
 20
1.131246277385288
 30
0.0
 42
-0.0461172199235272
  0
VERTEX
  5
222
  8
SignTorch_CATTAIL003_
 10
8.432334401394773
 20
1.379675151315573
 30
0.0
 42
-0.0286123240986644
  0
VERTEX
  5
223
  8
SignTorch_CATTAIL003_
 10
8.621379959106445
 20
1.755621277385288
 30
0.0
 42
-0.002755210995622
  0
VERTEX
  5
224
  8
SignTorch_CATTAIL003_
 10
8.779206639744775
 20
2.025825924253525
 30
0.0
 42
-0.0335502064582142
  0
VERTEX
  5
225
  8
SignTorch_CATTAIL003_
 10
8.861379959106445
 20
2.145621277385288
 30
0.0
 42
-0.0316122150963287
  0
VERTEX
  5
226
  8
SignTorch_CATTAIL003_
 10
9.166404411632366
 20
2.485427513206421
 30
0.0
 42
-0.0268672943959467
  0
VERTEX
  5
227
  8
SignTorch_CATTAIL003_
 10
9.569378005981445
 20
2.840549011760288
 30
0.0
 42
-0.0458865494558656
  0
VERTEX
  5
228
  8
SignTorch_CATTAIL003_
 10
10.03448807896415
 20
3.143237656298499
 30
0.0
 42
-0.0539892462296429
  0
VERTEX
  5
229
  8
SignTorch_CATTAIL003_
 10
10.30037995910645
 20
3.248621277385288
 30
0.0
 42
-0.4668551790048103
  0
VERTEX
  5
22A
  8
SignTorch_CATTAIL003_
 10
10.34139978066758
 20
3.220311100330058
 30
0.0
 42
-0.100910440833235
  0
VERTEX
  5
22B
  8
SignTorch_CATTAIL003_
 10
10.30050495910644
 20
2.843121277385288
 30
0.0
 42
-0.0277623125686603
  0
VERTEX
  5
22C
  8
SignTorch_CATTAIL003_
 10
10.21837310039751
 20
2.627958138798201
 30
0.0
 42
-0.0295209193865808
  0
VERTEX
  5
22D
  8
SignTorch_CATTAIL003_
 10
10.11850495910645
 20
2.435746277385288
 30
0.0
 42
0.012630631141987
  0
VERTEX
  5
22E
  8
SignTorch_CATTAIL003_
 10
10.09688050712729
 20
2.397353016526655
 30
0.0
 42
0.7167554701886043
  0
VERTEX
  5
22F
  8
SignTorch_CATTAIL003_
 10
10.12435066223144
 20
2.368222839885288
 30
0.0
 42
0.1427276108148356
  0
VERTEX
  5
230
  8
SignTorch_CATTAIL003_
 10
10.16529942064502
 20
2.403604119022249
 30
0.0
 42
0.0457329607594707
  0
VERTEX
  5
231
  8
SignTorch_CATTAIL003_
 10
10.32886433410644
 20
2.715293152385287
 30
0.0
 42
0.0381247927984476
  0
VERTEX
  5
232
  8
SignTorch_CATTAIL003_
 10
10.41281813284138
 20
2.972370508586685
 30
0.0
 42
0.0568404995126476
  0
VERTEX
  5
233
  8
SignTorch_CATTAIL003_
 10
10.43563191223144
 20
3.152646668010288
 30
0.0
 42
0.0414617139174287
  0
VERTEX
  5
234
  8
SignTorch_CATTAIL003_
 10
10.42894270933531
 20
3.247297870625962
 30
0.0
 42
-0.3482511266548649
  0
VERTEX
  5
235
  8
SignTorch_CATTAIL003_
 10
10.45462995910644
 20
3.292496277385288
 30
0.0
 42
-0.0602580309297087
  0
VERTEX
  5
236
  8
SignTorch_CATTAIL003_
 10
10.52812483096613
 20
3.312314737270243
 30
0.0
 42
-0.031516037520424
  0
VERTEX
  5
237
  8
SignTorch_CATTAIL003_
 10
10.75039558410645
 20
3.330136902385288
 30
0.0
 42
-0.0812703879067729
  0
VERTEX
  5
238
  8
SignTorch_CATTAIL003_
 10
11.08452245762405
 20
3.281283122082832
 30
0.0
 42
-0.1674783432376401
  0
VERTEX
  5
239
  8
SignTorch_CATTAIL003_
 10
11.35927058410645
 20
3.077043152385288
 30
0.0
 42
-0.1513854299763128
  0
VERTEX
  5
23A
  8
SignTorch_CATTAIL003_
 10
11.41172350118944
 20
2.90698634782176
 30
0.0
 42
-0.0488433275430451
  0
VERTEX
  5
23B
  8
SignTorch_CATTAIL003_
 10
11.39962995910644
 20
2.785121277385287
 30
0.0
 42
0.0619877717456021
  0
VERTEX
  5
23C
  8
SignTorch_CATTAIL003_
 10
11.39050717774242
 20
2.659866229857108
 30
0.0
 42
0.4227695709179756
  0
VERTEX
  5
23D
  8
SignTorch_CATTAIL003_
 10
11.40676667785645
 20
2.645613464885288
 30
0.0
 42
0.2515895359131427
  0
VERTEX
  5
23E
  8
SignTorch_CATTAIL003_
 10
11.42615632800459
 20
2.658128887564963
 30
0.0
 42
0.0677644236771667
  0
VERTEX
  5
23F
  8
SignTorch_CATTAIL003_
 10
11.45537995910644
 20
2.733621277385287
 30
0.0
 42
0.0274909577167313
  0
VERTEX
  5
240
  8
SignTorch_CATTAIL003_
 10
11.49144120963787
 20
2.932864811539273
 30
0.0
 42
0.1880206788548255
  0
VERTEX
  5
241
  8
SignTorch_CATTAIL003_
 10
11.43537995910645
 20
3.154621277385288
 30
0.0
 42
0.1898256198553749
  0
VERTEX
  5
242
  8
SignTorch_CATTAIL003_
 10
11.02915543597106
 20
3.418617909943277
 30
0.0
 42
0.0874589674734495
  0
VERTEX
  5
243
  8
SignTorch_CATTAIL003_
 10
10.53625495910644
 20
3.431746277385288
 30
0.0
 42
0.0118545573538626
  0
VERTEX
  5
244
  8
SignTorch_CATTAIL003_
 10
10.41541427523911
 20
3.410809857947528
 30
0.0
 42
-0.2133253556987647
  0
VERTEX
  5
245
  8
SignTorch_CATTAIL003_
 10
10.38505183410645
 20
3.417761902385288
 30
0.0
 42
-0.0725623100882786
  0
VERTEX
  5
246
  8
SignTorch_CATTAIL003_
 10
10.32795012775139
 20
3.475427235704177
 30
0.0
 42
0.1488952483323252
  0
VERTEX
  5
247
  8
SignTorch_CATTAIL003_
 10
10.20716120910645
 20
3.565277527385287
 30
0.0
 42
0.1089081726645799
  0
VERTEX
  5
248
  8
SignTorch_CATTAIL003_
 10
9.967065823047589
 20
3.595930082699356
 30
0.0
 42
0.1150240617772562
  0
VERTEX
  5
249
  8
SignTorch_CATTAIL003_
 10
9.374629959106445
 20
3.400246277385288
 30
0.0
 42
0.0561382809315758
  0
VERTEX
  5
24A
  8
SignTorch_CATTAIL003_
 10
9.132172173799098
 20
3.211987388078039
 30
0.0
 42
0.0673781781957361
  0
VERTEX
  5
24B
  8
SignTorch_CATTAIL003_
 10
8.852661209106445
 20
2.854699402385288
 30
0.0
 42
0.0193175205481653
  0
VERTEX
  5
24C
  8
SignTorch_CATTAIL003_
 10
8.702774345291155
 20
2.574149601783827
 30
0.0
 42
-0.062314482467239
  0
VERTEX
  5
24D
  8
SignTorch_CATTAIL003_
 10
8.659395584106445
 20
2.507433777385287
 30
0.0
 42
-0.1038712454726041
  0
VERTEX
  5
24E
  8
SignTorch_CATTAIL003_
 10
8.64512964235337
 20
2.496297514289431
 30
0.0
 42
-0.3549186099858211
  0
VERTEX
  5
24F
  8
SignTorch_CATTAIL003_
 10
8.639379959106444
 20
2.497621277385288
 30
0.0
 42
-0.2975422454410248
  0
VERTEX
  5
250
  8
SignTorch_CATTAIL003_
 10
8.638163863358898
 20
2.512063411976185
 30
0.0
 42
0.0666781916879242
  0
VERTEX
  5
251
  8
SignTorch_CATTAIL003_
 10
8.643286209106446
 20
2.525621277385288
 30
0.0
 42
-0.0319738016296935
  0
VERTEX
  5
252
  8
SignTorch_CATTAIL003_
 10
8.666789025991037
 20
2.603809193674848
 30
0.0
 42
-0.0098081740368283
  0
VERTEX
  5
253
  8
SignTorch_CATTAIL003_
 10
8.764317459106445
 20
2.851183777385288
 30
0.0
 42
-0.0507297869222506
  0
VERTEX
  5
254
  8
SignTorch_CATTAIL003_
 10
8.967027858632251
 20
3.225321136534453
 30
0.0
 42
-0.0464423148837224
  0
VERTEX
  5
255
  8
SignTorch_CATTAIL003_
 10
9.462379959106444
 20
3.824621277385288
 30
0.0
 42
-0.0587353675718957
  0
VERTEX
  5
256
  8
SignTorch_CATTAIL003_
 10
9.55219291765935
 20
3.895764315442047
 30
0.0
 42
-0.2332065656399454
  0
VERTEX
  5
257
  8
SignTorch_CATTAIL003_
 10
9.582379959106445
 20
3.898621277385288
 30
0.0
 42
-0.1907164975873078
  0
VERTEX
  5
258
  8
SignTorch_CATTAIL003_
 10
9.64494477452698
 20
3.841405682470139
 30
0.0
 42
0.2606945803139947
  0
VERTEX
  5
259
  8
SignTorch_CATTAIL003_
 10
9.682458084106445
 20
3.815318543010288
 30
0.0
 42
0.4389191605889106
  0
VERTEX
  5
25A
  8
SignTorch_CATTAIL003_
 10
9.698391922576159
 20
3.829566544161236
 30
0.0
 42
0.1282242330840307
  0
VERTEX
  5
25B
  8
SignTorch_CATTAIL003_
 10
9.683504959106443
 20
3.890121277385288
 30
0.0
 42
0.04667538040261
  0
VERTEX
  5
25C
  8
SignTorch_CATTAIL003_
 10
9.652684603082973
 20
3.936211908364794
 30
0.0
 42
-0.3414951769839505
  0
VERTEX
  5
25D
  8
SignTorch_CATTAIL003_
 10
9.651940505981443
 20
3.966541199260288
 30
0.0
 42
-0.0895727565851678
  0
VERTEX
  5
25E
  8
SignTorch_CATTAIL003_
 10
9.69300891563697
 20
4.005457673357427
 30
0.0
 42
-0.0433464634362428
  0
VERTEX
  5
25F
  8
SignTorch_CATTAIL003_
 10
9.924815505981444
 20
4.130052918010288
 30
0.0
 42
-0.085391966424256
  0
VERTEX
  5
260
  8
SignTorch_CATTAIL003_
 10
10.28334872607146
 20
4.216343106399488
 30
0.0
 42
-0.079071195941608
  0
VERTEX
  5
261
  8
SignTorch_CATTAIL003_
 10
10.67950495910645
 20
4.179793152385288
 30
0.0
 42
-0.0351676095876871
  0
VERTEX
  5
262
  8
SignTorch_CATTAIL003_
 10
10.76015911005659
 20
4.153054363427295
 30
0.0
 42
-0.0329707649296897
  0
VERTEX
  5
263
  8
SignTorch_CATTAIL003_
 10
10.84150495910644
 20
4.113121277385288
 30
0.0
 42
-0.0306903004076152
  0
VERTEX
  5
264
  8
SignTorch_CATTAIL003_
 10
10.93956313548717
 20
4.048367516423153
 30
0.0
 42
0.1680353969070507
  0
VERTEX
  5
265
  8
SignTorch_CATTAIL003_
 10
11.00000495910644
 20
4.028871277385288
 30
0.0
 42
0.4989590348831036
  0
VERTEX
  5
266
  8
SignTorch_CATTAIL003_
 10
11.01232694343001
 20
4.045977591261249
 30
0.0
 42
0.1053113227609963
  0
VERTEX
  5
267
  8
SignTorch_CATTAIL003_
 10
10.99737995910644
 20
4.072621277385288
 30
0.0
 42
0.1383812321057191
  0
VERTEX
  5
268
  8
SignTorch_CATTAIL003_
 10
10.72875983338904
 20
4.246579427043876
 30
0.0
 42
0.0848594228642982
  0
VERTEX
  5
269
  8
SignTorch_CATTAIL003_
 10
10.21737995910644
 20
4.313621277385288
 30
0.0
 42
0.0558082752642019
  0
VERTEX
  5
26A
  8
SignTorch_CATTAIL003_
 10
10.04809989363
 20
4.287957856225957
 30
0.0
 42
0.02949601003259
  0
VERTEX
  5
26B
  8
SignTorch_CATTAIL003_
 10
9.741379959106444
 20
4.185996277385287
 30
0.0
 42
0.0549710178254506
  0
VERTEX
  5
26C
  8
SignTorch_CATTAIL003_
 10
9.5729647480702
 20
4.09622187092501
 30
0.0
 42
-0.0445453455219012
  0
VERTEX
  5
26D
  8
SignTorch_CATTAIL003_
 10
9.531335037231445
 20
4.072906433635287
 30
0.0
 42
-0.2378167621769494
  0
VERTEX
  5
26E
  8
SignTorch_CATTAIL003_
 10
9.491616724808267
 20
4.074712937904123
 30
0.0
 42
0.1092808381840192
  0
VERTEX
  5
26F
  8
SignTorch_CATTAIL003_
 10
9.340379959106444
 20
4.120621277385288
 30
0.0
 42
0.1440358174603711
  0
VERTEX
  5
270
  8
SignTorch_CATTAIL003_
 10
9.096295715714067
 20
4.068829053732451
 30
0.0
 42
0.0871916200642735
  0
VERTEX
  5
271
  8
SignTorch_CATTAIL003_
 10
8.777153396606444
 20
3.816435730510287
 30
0.0
 42
0.0263508582586094
  0
VERTEX
  5
272
  8
SignTorch_CATTAIL003_
 10
8.655111134181427
 20
3.6639724807208
 30
0.0
 42
0.032519095963383
  0
VERTEX
  5
273
  8
SignTorch_CATTAIL003_
 10
8.571379959106444
 20
3.529621277385288
 30
0.0
 42
-0.0007535386920954
  0
VERTEX
  5
274
  8
SignTorch_CATTAIL003_
 10
8.500204160341273
 20
3.397397459006468
 30
0.0
 42
-0.0788179450784987
  0
VERTEX
  5
275
  8
SignTorch_CATTAIL003_
 10
8.477348709106444
 20
3.367496277385288
 30
0.0
 42
-0.6317530121037338
  0
VERTEX
  5
276
  8
SignTorch_CATTAIL003_
 10
8.466569531673859
 20
3.371627942120965
 30
0.0
 42
-0.0350073579872566
  0
VERTEX
  5
277
  8
SignTorch_CATTAIL003_
 10
8.466379959106446
 20
3.395621277385288
 30
0.0
 42
-0.0157910111887047
  0
VERTEX
  5
278
  8
SignTorch_CATTAIL003_
 10
8.491626295184512
 20
3.664372236252168
 30
0.0
 42
-0.0005544001589136
  0
VERTEX
  5
279
  8
SignTorch_CATTAIL003_
 10
8.627676834106445
 20
4.735386902385288
 30
0.0
 42
-0.026657228217605
  0
VERTEX
  5
27A
  8
SignTorch_CATTAIL003_
 10
8.772294287509197
 20
5.526690914282702
 30
0.0
 42
-0.0265816510416035
  0
VERTEX
  5
27B
  8
SignTorch_CATTAIL003_
 10
9.000817459106445
 20
6.300340027385287
 30
0.0
 42
-0.0554678492280993
  0
VERTEX
  5
27C
  8
SignTorch_CATTAIL003_
 10
9.219730693011295
 20
6.752152459731091
 30
0.0
 42
-0.0804669014691654
  0
VERTEX
  5
27D
  8
SignTorch_CATTAIL003_
 10
9.449379959106444
 20
7.012621277385287
 30
0.0
 42
0.1251966045486151
  0
VERTEX
  5
27E
  8
SignTorch_CATTAIL003_
 10
9.477771204883426
 20
7.051227959631167
 30
0.0
 42
0.4498755179838884
  0
VERTEX
  5
27F
  8
SignTorch_CATTAIL003_
 10
9.470754959106443
 20
7.065371277385287
 30
0.0
 42
0.2041139484166204
  0
VERTEX
  5
280
  8
SignTorch_CATTAIL003_
 10
9.42708954855398
 20
7.059310952429425
 30
0.0
 42
0.0537079259910761
  0
VERTEX
  5
281
  8
SignTorch_CATTAIL003_
 10
9.241879959106445
 20
6.919121277385287
 30
0.0
 42
0.0894440947276348
  0
VERTEX
  5
282
  8
SignTorch_CATTAIL003_
 10
8.937642997198326
 20
6.508060535695923
 30
0.0
 42
0.0524228774956955
  0
VERTEX
  5
283
  8
SignTorch_CATTAIL003_
 10
8.636754959106444
 20
5.693871277385287
 30
0.0
 42
0.0185010892961523
  0
VERTEX
  5
284
  8
SignTorch_CATTAIL003_
 10
8.500580927388603
 20
5.061933186264004
 30
0.0
 42
0.0161548864846665
  0
VERTEX
  5
285
  8
SignTorch_CATTAIL003_
 10
8.395129959106445
 20
4.329215027385287
 30
0.0
 42
0.0081503838856569
  0
VERTEX
  5
286
  8
SignTorch_CATTAIL003_
 10
8.379489182952884
 20
4.1638956576856
 30
0.0
 42
-0.0095674833372131
  0
VERTEX
  5
287
  8
SignTorch_CATTAIL003_
 10
8.363379959106444
 20
3.998621277385287
 30
0.0
 42
-0.0272929148846827
  0
VERTEX
  5
288
  8
SignTorch_CATTAIL003_
 10
8.358997593635307
 20
3.973223900951515
 30
0.0
 42
-0.6398078028697927
  0
VERTEX
  5
289
  8
SignTorch_CATTAIL003_
 10
8.347348709106445
 20
3.970777527385287
 30
0.0
 42
-0.1263313260041571
  0
VERTEX
  5
28A
  8
SignTorch_CATTAIL003_
 10
8.330277129944918
 20
4.012532625564424
 30
0.0
 42
0.027261464816817
  0
VERTEX
  5
28B
  8
SignTorch_CATTAIL003_
 10
8.314379959106445
 20
4.094621277385288
 30
0.0
 42
0.0192080997007481
  0
VERTEX
  5
28C
  8
SignTorch_CATTAIL003_
 10
8.250864220645752
 20
4.312051804869196
 30
0.0
 42
-0.0898795198503878
  0
VERTEX
  5
28D
  8
SignTorch_CATTAIL003_
 10
8.218504959106443
 20
4.536246277385288
 30
0.0
 42
-0.0030295001314689
  0
VERTEX
  5
28E
  8
SignTorch_CATTAIL003_
 10
8.228310764567794
 20
4.769632925069468
 30
0.0
 42
0.0046347190962092
  0
VERTEX
  5
28F
  8
SignTorch_CATTAIL003_
 10
8.245129959106446
 20
5.203121277385288
 30
0.0
 42
-0.008349258021956
  0
VERTEX
  5
290
  8
SignTorch_CATTAIL003_
 10
8.269010206780248
 20
5.719541764371918
 30
0.0
 42
0.0020639151835923
  0
VERTEX
  5
291
  8
SignTorch_CATTAIL003_
 10
8.299379959106446
 20
6.235621277385287
 30
0.0
 42
-0.0155040674253334
  0
VERTEX
  5
292
  8
SignTorch_CATTAIL003_
 10
8.31496687558993
 20
6.417144822340406
 30
0.0
 42
-0.1867479977434575
  0
VERTEX
  5
293
  8
SignTorch_CATTAIL003_
 10
8.355051834106446
 20
6.493043152385289
 30
0.0
 42
0.1734139281274502
  0
VERTEX
  5
294
  8
SignTorch_CATTAIL003_
 10
8.425929972384507
 20
6.619241753259967
 30
0.0
 42
0.0131143196701918
  0
VERTEX
  5
295
  8
SignTorch_CATTAIL003_
 10
8.470473709106445
 20
6.930605652385287
 30
0.0
 42
0.041875505746909
  0
VERTEX
  5
296
  8
SignTorch_CATTAIL003_
 10
8.487599101044042
 20
7.462817752883274
 30
0.0
 42
0.0802689268863308
  0
VERTEX
  5
297
  8
SignTorch_CATTAIL003_
 10
8.449379959106444
 20
7.640621277385286
 30
0.0
 42
0.1404053801197865
  0
VERTEX
  5
298
  8
SignTorch_CATTAIL003_
 10
8.39333741298302
 20
7.714202372995386
 30
0.0
 42
-0.1779134416069659
  0
VERTEX
  5
299
  8
SignTorch_CATTAIL003_
 10
8.366129959106445
 20
7.755933777385287
 30
0.0
 42
-0.0746632315471029
  0
VERTEX
  5
29A
  8
SignTorch_CATTAIL003_
 10
8.361333177277906
 20
7.818462061391895
 30
0.0
 42
0.0321402242697863
  0
VERTEX
  5
29B
  8
SignTorch_CATTAIL003_
 10
8.363395584106444
 20
8.069121277385285
 30
0.0
 42
0.0325266051013962
  0
VERTEX
  5
29C
  8
SignTorch_CATTAIL003_
 10
8.357616093561392
 20
8.11662819595805
 30
0.0
 42
0.5821279445062452
  0
VERTEX
  5
29D
  8
SignTorch_CATTAIL003_
 10
8.336129959106445
 20
8.123996277385286
 30
0.0
 42
0.2096911320055098
  0
VERTEX
  5
29E
  8
SignTorch_CATTAIL003_
 10
8.321524319477415
 20
8.092433926854808
 30
0.0
 42
-0.0213452548744544
  0
VERTEX
  5
29F
  8
SignTorch_CATTAIL003_
 10
8.312926834106445
 20
7.955496277385286
 30
0.0
 42
0.0033566314206469
  0
VERTEX
  5
2A0
  8
SignTorch_CATTAIL003_
 10
8.299060950605625
 20
7.815428241939401
 30
0.0
 42
0.018285088175482
  0
VERTEX
  5
2A1
  8
SignTorch_CATTAIL003_
 10
8.297629959106445
 20
7.789621277385286
 30
0.0
 42
-0.2147949664687576
  0
VERTEX
  5
2A2
  8
SignTorch_CATTAIL003_
 10
8.267036224159375
 20
7.72496986412852
 30
0.0
 42
0.1503387558912492
  0
VERTEX
  5
2A3
  8
SignTorch_CATTAIL003_
 10
8.195780349731445
 20
7.612990418010287
 30
0.0
 42
0.0466110513832208
  0
VERTEX
  5
2A4
  8
SignTorch_CATTAIL003_
 10
8.185820984170759
 20
7.556697400737556
 30
0.0
 42
0.0138249154756926
  0
VERTEX
  5
2A5
  8
SignTorch_CATTAIL003_
 10
8.175379959106445
 20
7.364621277385287
 30
0.0
 42
-0.0059596055821467
  0
VERTEX
  5
2A6
  8
SignTorch_CATTAIL003_
 10
8.14995305412246
 20
6.705816158993303
 30
0.0
 42
0.0814104891235323
  0
VERTEX
  5
2A7
  8
SignTorch_CATTAIL003_
 10
8.168411209106445
 20
6.541652527385287
 30
0.0
 42
0.1244016007378319
  0
VERTEX
  5
2A8
  8
SignTorch_CATTAIL003_
 10
8.205611869923839
 20
6.476974767781631
 30
0.0
 42
-0.1623525313625899
  0
VERTEX
  5
2A9
  8
SignTorch_CATTAIL003_
 10
8.223004959106445
 20
6.440746277385287
 30
0.0
 42
-0.0816279456379627
  0
VERTEX
  5
2AA
  8
SignTorch_CATTAIL003_
 10
8.221861956630903
 20
6.410030142643772
 30
0.0
 42
0.0268823916516437
  0
VERTEX
  5
2AB
  8
SignTorch_CATTAIL003_
 10
8.217379959106443
 20
6.379621277385287
 30
0.0
 42
0.0154135137858539
  0
VERTEX
  5
2AC
  8
SignTorch_CATTAIL003_
 10
8.139818775853128
 20
5.125392760583473
 30
0.0
 42
-0.0076828520745106
  0
VERTEX
  5
2AD
  8
SignTorch_CATTAIL003_
 10
8.125277594032115
 20
4.811565852366407
 30
0.0
 42
0.0098684742382918
  0
VERTEX
  5
2AE
  8
SignTorch_CATTAIL003_
 10
8.123846050796718
 20
4.777445425432189
 30
0.0
 42
-0.4077277230650989
  0
VERTEX
  5
2AF
  8
SignTorch_CATTAIL003_
 10
8.117379959106444
 20
4.771121277385287
 30
0.0
 42
-0.416918691609852
  0
VERTEX
  5
2B0
  8
SignTorch_CATTAIL003_
 10
8.11103510609504
 20
4.777524946424692
 30
0.0
 42
0.0215472420875892
  0
VERTEX
  5
2B1
  8
SignTorch_CATTAIL003_
 10
8.109881438647394
 20
4.811582841049492
 30
0.0
 42
-0.0029517508096364
  0
VERTEX
  5
2B2
  8
SignTorch_CATTAIL003_
 10
8.092308028824315
 20
5.058522219987125
 30
0.0
 42
0.156058237013479
  0
VERTEX
  5
2B3
  8
SignTorch_CATTAIL003_
 10
8.069442459106444
 20
5.116652527385288
 30
0.0
 42
0.6307404650815001
  0
VERTEX
  5
2B4
  8
SignTorch_CATTAIL003_
 10
8.033927590233828
 20
5.107998448002709
 30
0.0
 42
0.0225906461212841
  0
VERTEX
  5
2B5
  8
SignTorch_CATTAIL003_
 10
8.020879959106445
 20
5.027746277385287
 30
0.0
 42
0.0532698002974143
  0
VERTEX
  5
2B6
  8
SignTorch_CATTAIL003_
 10
8.019823821646797
 20
4.917275834125549
 30
0.0
 42
-0.2353390589221257
  0
VERTEX
  5
2B7
  8
SignTorch_CATTAIL003_
 10
8.009829177856444
 20
4.891150574260287
 30
0.0
 42
-0.5373471285548442
  0
VERTEX
  5
2B8
  8
SignTorch_CATTAIL003_
 10
7.995047086138253
 20
4.894815221409409
 30
0.0
 42
0.0527903156643414
  0
VERTEX
  5
2B9
  8
SignTorch_CATTAIL003_
 10
7.970708084106444
 20
4.945574402385287
 30
0.0
 42
-0.0250036867400876
  0
VERTEX
  5
2BA
  8
SignTorch_CATTAIL003_
 10
7.934366146545604
 20
5.01168890245452
 30
0.0
 42
-0.087249876546664
  0
VERTEX
  5
2BB
  8
SignTorch_CATTAIL003_
 10
7.928379959106444
 20
5.032621277385288
 30
0.0
 42
-0.0351527724348045
  0
VERTEX
  5
2BC
  8
SignTorch_CATTAIL003_
 10
7.925066746664298
 20
5.129440154472836
 30
0.0
 42
0.0034290671817356
  0
VERTEX
  5
2BD
  8
SignTorch_CATTAIL003_
 10
7.936379959106445
 20
5.516621277385288
 30
0.0
 42
-0.0172145190943199
  0
VERTEX
  5
2BE
  8
SignTorch_CATTAIL003_
 10
7.973112271376242
 20
6.16286472369503
 30
0.0
 42
0.0436321800873345
  0
VERTEX
  5
2BF
  8
SignTorch_CATTAIL003_
 10
7.974504959106444
 20
6.511449402385288
 30
0.0
 42
-0.0385269351603629
  0
VERTEX
  5
2C0
  8
SignTorch_CATTAIL003_
 10
7.97415589781227
 20
6.567766839745771
 30
0.0
 42
-0.1842816183490337
  0
VERTEX
  5
2C1
  8
SignTorch_CATTAIL003_
 10
8.003723709106444
 20
6.631347839885287
 30
0.0
 42
0.1453817444679102
  0
VERTEX
  5
2C2
  8
SignTorch_CATTAIL003_
 10
8.07928250273531
 20
6.766104416513272
 30
0.0
 42
0.0519447330967028
  0
VERTEX
  5
2C3
  8
SignTorch_CATTAIL003_
 10
8.129473709106446
 20
7.187715027385287
 30
0.0
 42
0.0314687770038414
  0
VERTEX
  5
2C4
  8
SignTorch_CATTAIL003_
 10
8.091918405011967
 20
7.965875034063764
 30
0.0
 42
0.159419374429578
  0
VERTEX
  5
2C5
  8
SignTorch_CATTAIL003_
 10
8.026629959106446
 20
8.109246277385285
 30
0.0
 42
-0.2008636986706636
  0
VERTEX
  5
2C6
  8
SignTorch_CATTAIL003_
 10
8.006520134679121
 20
8.16484681652952
 30
0.0
 42
0.0434862516695926
  0
VERTEX
  5
2C7
  8
SignTorch_CATTAIL003_
 10
7.997735427856445
 20
8.398924011760286
 30
0.0
 42
0.0816917064445206
  0
VERTEX
  5
2C8
  8
SignTorch_CATTAIL003_
 10
7.980281962773186
 20
8.457960516418147
 30
0.0
 42
0.5344696593252951
  0
VERTEX
  5
2C9
  8
SignTorch_CATTAIL003_
 10
7.968379959106444
 20
8.459621277385287
 30
0.0
 42
0.1686085672461272
  0
VERTEX
  5
2CA
  8
SignTorch_CATTAIL003_
 10
7.955151816444079
 20
8.427774040988405
 30
0.0
 42
-0.0096739410819727
  0
VERTEX
  5
2CB
  8
SignTorch_CATTAIL003_
 10
7.944379959106445
 20
8.291621277385287
 30
0.0
 42
0.0325184109513582
  0
VERTEX
  5
2CC
  8
SignTorch_CATTAIL003_
 10
7.940327223222086
 20
8.169907172843843
 30
0.0
 42
-0.2432951178621689
  0
VERTEX
  5
2CD
  8
SignTorch_CATTAIL003_
 10
7.911823318481444
 20
8.110228699260286
 30
0.0
 42
0.2050223911333344
  0
VERTEX
  5
2CE
  8
SignTorch_CATTAIL003_
 10
7.854367894913844
 20
8.009522301509028
 30
0.0
 42
0.0139138373503768
  0
VERTEX
  5
2CF
  8
SignTorch_CATTAIL003_
 10
7.832254959106445
 20
7.753621277385287
 30
0.0
 42
0.0065418433506416
  0
VERTEX
  5
2D0
  8
SignTorch_CATTAIL003_
 10
7.818634981033886
 20
7.453089218954269
 30
0.0
 42
0.0051005736350651
  0
VERTEX
  5
2D1
  8
SignTorch_CATTAIL003_
 10
7.810145584106445
 20
7.067340027385287
 30
0.0
 42
0.0725270157151456
  0
VERTEX
  5
2D2
  8
SignTorch_CATTAIL003_
 10
7.840241220280048
 20
6.842388671017424
 30
0.0
 42
0.0133330638242689
  0
VERTEX
  5
2D3
  8
SignTorch_CATTAIL003_
 10
7.897004959106445
 20
6.661746277385287
 30
0.0
 42
-0.1317415777967408
  0
VERTEX
  5
2D4
  8
SignTorch_CATTAIL003_
 10
7.899823701300702
 20
6.621050100827384
 30
0.0
 42
0.0294969893600218
  0
VERTEX
  5
2D5
  8
SignTorch_CATTAIL003_
 10
7.894379959106445
 20
6.580621277385288
 30
0.0
 42
0.0146858116226727
  0
VERTEX
  5
2D6
  8
SignTorch_CATTAIL003_
 10
7.882664719911377
 20
6.32331334867095
 30
0.0
 42
-0.0233293972410344
  0
VERTEX
  5
2D7
  8
SignTorch_CATTAIL003_
 10
7.866504959106445
 20
6.066246277385288
 30
0.0
 42
0.0208563659870967
  0
VERTEX
  5
2D8
  8
SignTorch_CATTAIL003_
 10
7.830781646811546
 20
5.539562007672371
 30
0.0
 42
-0.0105741408001513
  0
VERTEX
  5
2D9
  8
SignTorch_CATTAIL003_
 10
7.817379959106445
 20
5.255621277385288
 30
0.0
 42
-0.1101960477264736
  0
VERTEX
  5
2DA
  8
SignTorch_CATTAIL003_
 10
7.803019303828051
 20
5.207111751951055
 30
0.0
 42
-0.411521617545656
  0
VERTEX
  5
2DB
  8
SignTorch_CATTAIL003_
 10
7.787989334106443
 20
5.202746277385287
 30
0.0
 42
-0.1039043956905863
  0
VERTEX
  5
2DC
  8
SignTorch_CATTAIL003_
 10
7.756396719090313
 20
5.229637917650084
 30
0.0
 42
0.0464644842938728
  0
VERTEX
  5
2DD
  8
SignTorch_CATTAIL003_
 10
7.643254959106445
 20
5.350746277385287
 30
0.0
 42
0.0478989737140471
  0
VERTEX
  5
2DE
  8
SignTorch_CATTAIL003_
 10
7.578630941713846
 20
5.397944527496207
 30
0.0
 42
-0.2287663798644939
  0
VERTEX
  5
2DF
  8
SignTorch_CATTAIL003_
 10
7.534379959106444
 20
5.464621277385287
 30
0.0
 42
-0.0521911129927382
  0
VERTEX
  5
2E0
  8
SignTorch_CATTAIL003_
 10
7.531510140499338
 20
5.554721233057399
 30
0.0
 42
0.0114182174227973
  0
VERTEX
  5
2E1
  8
SignTorch_CATTAIL003_
 10
7.549379959106446
 20
5.914621277385288
 30
0.0
 42
-0.0075653563980208
  0
VERTEX
  5
2E2
  8
SignTorch_CATTAIL003_
 10
7.5709611521404
 20
6.429305267964151
 30
0.0
 42
-0.0290620079527312
  0
VERTEX
  5
2E3
  8
SignTorch_CATTAIL003_
 10
7.586379959106445
 20
6.562621277385287
 30
0.0
 42
0.0932051495117869
  0
VERTEX
  5
2E4
  8
SignTorch_CATTAIL003_
 10
7.585870278662339
 20
6.60300218903071
 30
0.0
 42
0.611510556732043
  0
VERTEX
  5
2E5
  8
SignTorch_CATTAIL003_
 10
7.561489334106445
 20
6.609871277385288
 30
0.0
 42
0.1040134401791382
  0
VERTEX
  5
2E6
  8
SignTorch_CATTAIL003_
 10
7.540881976570309
 20
6.575528519853542
 30
0.0
 42
0.0418265155992441
  0
VERTEX
  5
2E7
  8
SignTorch_CATTAIL003_
 10
7.487379959106445
 20
6.365621277385287
 30
0.0
 42
0.0141088341529653
  0
VERTEX
  5
2E8
  8
SignTorch_CATTAIL003_
 10
7.449892783161762
 20
6.095205642423264
 30
0.0
 42
0.0105116286447187
  0
VERTEX
  5
2E9
  8
SignTorch_CATTAIL003_
 10
7.417504959106444
 20
5.730246277385287
 30
0.0
  0
VERTEX
  5
2EA
  8
SignTorch_CATTAIL003_
 10
7.401379959106444
 20
5.516621277385288
 30
0.0
 42
-0.3718711093008409
  0
VERTEX
  5
2EB
  8
SignTorch_CATTAIL003_
 10
7.385002770562029
 20
5.510621215937497
 30
0.0
 42
0.0076507510219578
  0
VERTEX
  5
2EC
  8
SignTorch_CATTAIL003_
 10
7.322504959106444
 20
5.533121277385288
 30
0.0
 42
0.089591159078506
  0
VERTEX
  5
2ED
  8
SignTorch_CATTAIL003_
 10
7.125546174258693
 20
5.563203276620136
 30
0.0
 42
0.4540781960327765
  0
VERTEX
  5
2EE
  8
SignTorch_CATTAIL003_
 10
7.110379959106445
 20
5.544871277385289
 30
0.0
 42
0.2709204813958526
  0
VERTEX
  5
2EF
  8
SignTorch_CATTAIL003_
 10
7.124767104105459
 20
5.527455297887682
 30
0.0
 42
0.0029964132986535
  0
VERTEX
  5
2F0
  8
SignTorch_CATTAIL003_
 10
7.207379959106444
 20
5.497746277385287
 30
0.0
 42
-0.0036350668891771
  0
VERTEX
  5
2F1
  8
SignTorch_CATTAIL003_
 10
7.367865826352978
 20
5.439801162389105
 30
0.0
 42
-0.2419713813297909
  0
VERTEX
  5
2F2
  8
SignTorch_CATTAIL003_
 10
7.397379959106445
 20
5.407621277385288
 30
0.0
 42
-0.0810702117547978
  0
VERTEX
  5
2F3
  8
SignTorch_CATTAIL003_
 10
7.403602718350547
 20
5.348920036046905
 30
0.0
 42
0.0042570654976504
  0
VERTEX
  5
2F4
  8
SignTorch_CATTAIL003_
 10
7.392379959106444
 20
5.113621277385287
 30
0.0
 42
0.02316919772864
  0
VERTEX
  5
2F5
  8
SignTorch_CATTAIL003_
 10
7.397181646773489
 20
4.445294621624535
 30
0.0
 42
0.0298975582131703
  0
VERTEX
  5
2F6
  8
SignTorch_CATTAIL003_
 10
7.455754959106445
 20
3.930496277385288
 30
0.0
 42
0.0205719951086528
  0
VERTEX
  5
2F7
  8
SignTorch_CATTAIL003_
 10
7.475649718808034
 20
3.83904503567036
 30
0.0
 42
-0.0486872481552895
  0
VERTEX
  5
2F8
  8
SignTorch_CATTAIL003_
 10
7.490379959106445
 20
3.746621277385287
 30
0.0
 42
-0.8286019205647519
  0
VERTEX
  5
2F9
  8
SignTorch_CATTAIL003_
 10
7.471541715393791
 20
3.741857857494652
 30
0.0
 42
0.0220087607780382
  0
VERTEX
  5
2FA
  8
SignTorch_CATTAIL003_
 10
7.441864334106445
 20
3.799058777385287
 30
0.0
 42
0.1788522488787601
  0
VERTEX
  5
2FB
  8
SignTorch_CATTAIL003_
 10
7.16645688123809
 20
4.028327161917628
 30
0.0
 42
0.2693044583139235
  0
VERTEX
  5
2FC
  8
SignTorch_CATTAIL003_
 10
6.923379959106445
 20
3.982621277385288
 30
0.0
 42
0.0616822007814012
  0
VERTEX
  5
2FD
  8
SignTorch_CATTAIL003_
 10
6.877399524740995
 20
3.931817236193194
 30
0.0
 42
-0.29666686031103
  0
VERTEX
  5
2FE
  8
SignTorch_CATTAIL003_
 10
6.842801834106445
 20
3.917933777385287
 30
0.0
 42
-0.1260851957750912
  0
VERTEX
  5
2FF
  8
SignTorch_CATTAIL003_
 10
6.809306329897828
 20
3.933950136840064
 30
0.0
 42
0.5393904815649837
  0
VERTEX
  5
300
  8
SignTorch_CATTAIL003_
 10
6.773754959106444
 20
3.923246277385287
 30
0.0
 42
0.1598391046507292
  0
VERTEX
  5
301
  8
SignTorch_CATTAIL003_
 10
6.775616658829318
 20
3.856706814983179
 30
0.0
 42
-0.2033001663650306
  0
VERTEX
  5
302
  8
SignTorch_CATTAIL003_
 10
6.771879959106445
 20
3.790246277385287
 30
0.0
 42
0.0542530779648717
  0
VERTEX
  5
303
  8
SignTorch_CATTAIL003_
 10
6.758638294588235
 20
3.753846192280739
 30
0.0
 42
0.3350808233923511
  0
VERTEX
  5
304
  8
SignTorch_CATTAIL003_
 10
6.767739334106444
 20
3.732683777385288
 30
0.0
 42
-0.0244978620790361
  0
VERTEX
  5
305
  8
SignTorch_CATTAIL003_
 10
6.794617338390436
 20
3.715569692215033
 30
0.0
 42
-0.1604173765110044
  0
VERTEX
  5
306
  8
SignTorch_CATTAIL003_
 10
6.797583084106444
 20
3.711558777385287
 30
0.0
 42
-0.1335111502256693
  0
VERTEX
  5
307
  8
SignTorch_CATTAIL003_
 10
6.799831884749233
 20
3.669262491868371
 30
0.0
 42
-0.1989596282376587
  0
VERTEX
  5
308
  8
SignTorch_CATTAIL003_
 10
6.783317459106445
 20
3.645386902385288
 30
0.0
 42
-0.0358562984449825
  0
VERTEX
  5
309
  8
SignTorch_CATTAIL003_
 10
6.713495923033319
 20
3.607134383990618
 30
0.0
 42
0.0449439794508377
  0
VERTEX
  5
30A
  8
SignTorch_CATTAIL003_
 10
6.644379959106445
 20
3.567621277385288
 30
0.0
 42
-0.0854531158562889
  0
VERTEX
  5
30B
  8
SignTorch_CATTAIL003_
 10
6.615957784102277
 20
3.554286446159397
 30
0.0
 42
-0.3271413428701445
  0
VERTEX
  5
30C
  8
SignTorch_CATTAIL003_
 10
6.607536209106445
 20
3.557496277385288
 30
0.0
 42
-0.1646887081444997
  0
VERTEX
  5
30D
  8
SignTorch_CATTAIL003_
 10
6.601401901928734
 20
3.58173561974144
 30
0.0
 42
0.0090993451896755
  0
VERTEX
  5
30E
  8
SignTorch_CATTAIL003_
 10
6.607379959106445
 20
3.680621277385288
 30
0.0
 42
0.0201159897188288
  0
VERTEX
  5
30F
  8
SignTorch_CATTAIL003_
 10
6.607983228737827
 20
3.989039340518748
 30
0.0
 42
-0.1837803102835654
  0
VERTEX
  5
310
  8
SignTorch_CATTAIL003_
 10
6.632879959106445
 20
4.062871277385288
 30
0.0
 42
-0.0427760260779483
  0
VERTEX
  5
311
  8
SignTorch_CATTAIL003_
 10
6.68124515471265
 20
4.112328218245585
 30
0.0
 42
-0.0261332787865516
  0
VERTEX
  5
312
  8
SignTorch_CATTAIL003_
 10
6.893942459106445
 20
4.276996277385288
 30
0.0
 42
-0.0379219594948021
  0
VERTEX
  5
313
  8
SignTorch_CATTAIL003_
 10
7.168247701869802
 20
4.437989677358929
 30
0.0
 42
0.0554828457843939
  0
VERTEX
  5
314
  8
SignTorch_CATTAIL003_
 10
7.235379959106445
 20
4.480621277385287
 30
0.0
 42
0.6750041450976997
  0
VERTEX
  5
315
  8
SignTorch_CATTAIL003_
 10
7.223159114375997
 20
4.521079478579309
 30
0.0
 42
0.0903172161553479
  0
VERTEX
  5
316
  8
SignTorch_CATTAIL003_
 10
7.154346755981445
 20
4.514855652385288
 30
0.0
 42
0.0585354510369135
  0
VERTEX
  5
317
  8
SignTorch_CATTAIL003_
 10
6.998002044162678
 20
4.451085210388123
 30
0.0
 42
0.0338209940380573
  0
VERTEX
  5
318
  8
SignTorch_CATTAIL003_
 10
6.752817459106445
 20
4.293293152385288
 30
0.0
 42
0.0297881136603608
  0
VERTEX
  5
319
  8
SignTorch_CATTAIL003_
 10
6.659470811916862
 20
4.214825793153486
 30
0.0
 42
-0.1391394373636096
  0
VERTEX
  5
31A
  8
SignTorch_CATTAIL003_
 10
6.632331130981444
 20
4.200625183635288
 30
0.0
 42
-0.422176453927596
  0
VERTEX
  5
31B
  8
SignTorch_CATTAIL003_
 10
6.622755744532721
 20
4.207083549490113
 30
0.0
 42
-0.0600306542358246
  0
VERTEX
  5
31C
  8
SignTorch_CATTAIL003_
 10
6.618708084106445
 20
4.276152527385287
 30
0.0
 42
0.0072301244477543
  0
VERTEX
  5
31D
  8
SignTorch_CATTAIL003_
 10
6.644447036711949
 20
4.824307010136148
 30
0.0
 42
-0.0167628951293978
  0
VERTEX
  5
31E
  8
SignTorch_CATTAIL003_
 10
6.680629959106445
 20
5.371871277385288
 30
0.0
 42
-0.0102523634084262
  0
VERTEX
  5
31F
  8
SignTorch_CATTAIL003_
 10
6.774294896954476
 20
6.148593586094356
 30
0.0
 42
-0.0203389265933303
  0
VERTEX
  5
320
  8
SignTorch_CATTAIL003_
 10
6.845379959106445
 20
6.536621277385287
 30
0.0
 42
-0.009357243556959
  0
VERTEX
  5
321
  8
SignTorch_CATTAIL003_
 10
6.902193286755
 20
6.768206110972468
 30
0.0
 42
-0.0212143670308598
  0
VERTEX
  5
322
  8
SignTorch_CATTAIL003_
 10
6.933458084106445
 20
6.868668152385288
 30
0.0
 42
0.0750908459597693
  0
VERTEX
  5
323
  8
SignTorch_CATTAIL003_
 10
6.952482391251406
 20
6.965380020701832
 30
0.0
 42
0.4375061394865306
  0
VERTEX
  5
324
  8
SignTorch_CATTAIL003_
 10
6.938379959106444
 20
6.979621277385287
 30
0.0
 42
0.2657020000010275
  0
VERTEX
  5
325
  8
SignTorch_CATTAIL003_
 10
6.917306104686408
 20
6.966586318319657
 30
0.0
 42
0.0096163894638284
  0
VERTEX
  5
326
  8
SignTorch_CATTAIL003_
 10
6.873004959106446
 20
6.881121277385287
 30
0.0
 42
0.0331075039932299
  0
VERTEX
  5
327
  8
SignTorch_CATTAIL003_
 10
6.806054046648704
 20
6.719533485475024
 30
0.0
 42
0.0162740935760223
  0
VERTEX
  5
328
  8
SignTorch_CATTAIL003_
 10
6.703004959106444
 20
6.379261902385288
 30
0.0
 42
0.0206531232681601
  0
VERTEX
  5
329
  8
SignTorch_CATTAIL003_
 10
6.682858389467667
 20
6.289260883674153
 30
0.0
 42
0.0053511761222354
  0
VERTEX
  5
32A
  8
SignTorch_CATTAIL003_
 10
6.623286209106444
 20
5.938465027385288
 30
0.0
 42
0.023764888603974
  0
VERTEX
  5
32B
  8
SignTorch_CATTAIL003_
 10
6.56062330854909
 20
5.371061245483506
 30
0.0
 42
-0.0082387253881921
  0
VERTEX
  5
32C
  8
SignTorch_CATTAIL003_
 10
6.536379959106445
 20
5.064621277385287
 30
0.0
 42
0.0038595220986149
  0
VERTEX
  5
32D
  8
SignTorch_CATTAIL003_
 10
6.531584462650561
 20
5.010084924063211
 30
0.0
 42
-0.3399658941641808
  0
VERTEX
  5
32E
  8
SignTorch_CATTAIL003_
 10
6.522004959106445
 20
4.999496277385287
 30
0.0
 42
-0.4949021897092078
  0
VERTEX
  5
32F
  8
SignTorch_CATTAIL003_
 10
6.512869587166947
 20
5.007823378707198
 30
0.0
 42
0.0272585903264147
  0
VERTEX
  5
330
  8
SignTorch_CATTAIL003_
 10
6.514379959106444
 20
5.053621277385288
 30
0.0
 42
0.0087412284043078
  0
VERTEX
  5
331
  8
SignTorch_CATTAIL003_
 10
6.484483433726712
 20
5.819444986551637
 30
0.0
 42
0.0456753777848783
  0
VERTEX
  5
332
  8
SignTorch_CATTAIL003_
 10
6.415379959106446
 20
6.283621277385287
 30
0.0
 42
0.0361982483335125
  0
VERTEX
  5
333
  8
SignTorch_CATTAIL003_
 10
6.400958857540118
 20
6.328418977474733
 30
0.0
 42
0.5766213597924778
  0
VERTEX
  5
334
  8
SignTorch_CATTAIL003_
 10
6.378379959106446
 20
6.331621277385288
 30
0.0
 42
0.1545030239959859
  0
VERTEX
  5
335
  8
SignTorch_CATTAIL003_
 10
6.369727861929612
 20
6.308564966862851
 30
0.0
 42
0.0277133704106976
  0
VERTEX
  5
336
  8
SignTorch_CATTAIL003_
 10
6.370129959106444
 20
6.174371277385288
 30
0.0
 42
-0.0011915255987925
  0
VERTEX
  5
337
  8
SignTorch_CATTAIL003_
 10
6.396428433723229
 20
5.705463928551715
 30
0.0
 42
-0.0073731529864385
  0
VERTEX
  5
338
  8
SignTorch_CATTAIL003_
 10
6.399379959106445
 20
5.629621277385287
 30
0.0
 42
-0.0099215067603332
  0
VERTEX
  5
339
  8
SignTorch_CATTAIL003_
 10
6.400255295385686
 20
5.426452966476175
 30
0.0
 42
0.0004986453435085
  0
VERTEX
  5
33A
  8
SignTorch_CATTAIL003_
 10
6.388442459106445
 20
4.613886902385287
 30
0.0
 42
-0.0030654733993671
  0
VERTEX
  5
33B
  8
SignTorch_CATTAIL003_
 10
6.383260929829062
 20
4.350502037299398
 30
0.0
 42
-0.0024417728467218
  0
VERTEX
  5
33C
  8
SignTorch_CATTAIL003_
 10
6.373114334106445
 20
4.019933777385287
 30
0.0
 42
-0.0418247853029334
  0
VERTEX
  5
33D
  8
SignTorch_CATTAIL003_
 10
6.363592759874751
 20
3.940412705566485
 30
0.0
 42
-0.0747446761377078
  0
VERTEX
  5
33E
  8
SignTorch_CATTAIL003_
 10
6.348083084106444
 20
3.898183777385287
 30
0.0
 42
-0.0266746422930625
  0
VERTEX
  5
33F
  8
SignTorch_CATTAIL003_
 10
6.304396013222881
 20
3.827647495038564
 30
0.0
 42
0.0180897749372231
  0
VERTEX
  5
340
  8
SignTorch_CATTAIL003_
 10
6.259504959106445
 20
3.757871277385288
 30
0.0
 42
0.0055121237327329
  0
VERTEX
  5
341
  8
SignTorch_CATTAIL003_
 10
6.214956610078659
 20
3.680870143606997
 30
0.0
 42
-0.6260545230849259
  0
VERTEX
  5
342
  8
SignTorch_CATTAIL003_
 10
6.189770584106444
 20
3.682418152385287
 30
0.0
 42
-0.130079118748136
  0
VERTEX
  5
343
  8
SignTorch_CATTAIL003_
 10
6.18392373142054
 20
3.726458169836392
 30
0.0
 42
0.0302118378067592
  0
VERTEX
  5
344
  8
SignTorch_CATTAIL003_
 10
6.189379959106445
 20
3.808621277385287
 30
0.0
 42
0.0178706797296248
  0
VERTEX
  5
345
  8
SignTorch_CATTAIL003_
 10
6.183513900196403
 20
4.005193163305209
 30
0.0
 42
-0.0843360563879662
  0
VERTEX
  5
346
  8
SignTorch_CATTAIL003_
 10
6.194379959106445
 20
4.110621277385287
 30
0.0
 42
-0.267216976002444
  0
VERTEX
  5
347
  8
SignTorch_CATTAIL003_
 10
6.236325543191258
 20
4.151916623981276
 30
0.0
 42
0.3759317942743206
  0
VERTEX
  5
348
  8
SignTorch_CATTAIL003_
 10
6.269379959106445
 20
4.200621277385288
 30
0.0
 42
0.5557490648837222
  0
VERTEX
  5
349
  8
SignTorch_CATTAIL003_
 10
6.236083698230096
 20
4.216028712654251
 30
0.0
 42
-0.328509152199908
  0
VERTEX
  5
34A
  8
SignTorch_CATTAIL003_
 10
6.199448318481445
 20
4.217998230510288
 30
0.0
 42
-0.0879520974969363
  0
VERTEX
  5
34B
  8
SignTorch_CATTAIL003_
 10
6.19665592183113
 20
4.221267892837454
 30
0.0
 42
-0.064782599075522
  0
VERTEX
  5
34C
  8
SignTorch_CATTAIL003_
 10
6.194379959106445
 20
4.226621277385288
 30
0.0
 42
-0.0745164156909369
  0
VERTEX
  5
34D
  8
SignTorch_CATTAIL003_
 10
6.189903316253959
 20
4.262581712269256
 30
0.0
 42
0.0056221981275843
  0
VERTEX
  5
34E
  8
SignTorch_CATTAIL003_
 10
6.191879959106444
 20
4.407246277385288
 30
0.0
 42
-0.0029277924718396
  0
VERTEX
  5
34F
  8
SignTorch_CATTAIL003_
 10
6.201606086374134
 20
5.582714578539163
 30
0.0
 42
0.0051101795427662
  0
VERTEX
  5
350
  8
SignTorch_CATTAIL003_
 10
6.202754959106445
 20
5.876590027385287
 30
0.0
 42
0.0322167850454924
  0
VERTEX
  5
351
  8
SignTorch_CATTAIL003_
 10
6.182746850935798
 20
6.159029497777928
 30
0.0
 42
-0.0964058438561907
  0
VERTEX
  5
352
  8
SignTorch_CATTAIL003_
 10
6.186792068481444
 20
6.229816589885289
 30
0.0
 42
-0.145631548608702
  0
VERTEX
  5
353
  8
SignTorch_CATTAIL003_
 10
6.201456180997064
 20
6.254361690074502
 30
0.0
 42
0.1410602662945221
  0
VERTEX
  5
354
  8
SignTorch_CATTAIL003_
 10
6.260989334106444
 20
6.352011902385288
 30
0.0
 42
0.059586316273905
  0
VERTEX
  5
355
  8
SignTorch_CATTAIL003_
 10
6.282719947398862
 20
6.497580225238914
 30
0.0
 42
0.018022390046806
  0
VERTEX
  5
356
  8
SignTorch_CATTAIL003_
 10
6.279379959106445
 20
6.982621277385287
 30
0.0
 42
-0.013610870905967
  0
VERTEX
  5
357
  8
SignTorch_CATTAIL003_
 10
6.272498568334369
 20
7.42070344171497
 30
0.0
 42
0.087708881201555
  0
VERTEX
  5
358
  8
SignTorch_CATTAIL003_
 10
6.234065505981445
 20
7.653732605510288
 30
0.0
 42
0.1277027807487537
  0
VERTEX
  5
359
  8
SignTorch_CATTAIL003_
 10
6.195200566099466
 20
7.71147107446124
 30
0.0
 42
-0.1925796240680501
  0
VERTEX
  5
35A
  8
SignTorch_CATTAIL003_
 10
6.163928787231445
 20
7.773650574260286
 30
0.0
 42
-0.0338613379693273
  0
VERTEX
  5
35B
  8
SignTorch_CATTAIL003_
 10
6.16027906014949
 20
7.978796352380278
 30
0.0
 42
0.0784105186579103
  0
VERTEX
  5
35C
  8
SignTorch_CATTAIL003_
 10
6.154817459106445
 20
8.029840027385287
 30
0.0
 42
0.2431699533442692
  0
VERTEX
  5
35D
  8
SignTorch_CATTAIL003_
 10
6.142059381359722
 20
8.043807570531744
 30
0.0
 42
0.3429328710749993
  0
VERTEX
  5
35E
  8
SignTorch_CATTAIL003_
 10
6.128567459106446
 20
8.039527527385287
 30
0.0
 42
0.1532533901464259
  0
VERTEX
  5
35F
  8
SignTorch_CATTAIL003_
 10
6.11404390314311
 20
7.992365982741013
 30
0.0
 42
-0.0282441502514862
  0
VERTEX
  5
360
  8
SignTorch_CATTAIL003_
 10
6.109379959106445
 20
7.901121277385287
 30
0.0
 42
-0.0283999302975694
  0
VERTEX
  5
361
  8
SignTorch_CATTAIL003_
 10
6.092496695684448
 20
7.799306573619121
 30
0.0
 42
-0.1335586151213656
  0
VERTEX
  5
362
  8
SignTorch_CATTAIL003_
 10
6.061379959106445
 20
7.740496277385287
 30
0.0
 42
0.1490581032374998
  0
VERTEX
  5
363
  8
SignTorch_CATTAIL003_
 10
6.017732830243939
 20
7.651567124145092
 30
0.0
 42
0.0196608728012566
  0
VERTEX
  5
364
  8
SignTorch_CATTAIL003_
 10
5.995411209106445
 20
7.468011902385287
 30
0.0
 42
0.0308241602435834
  0
VERTEX
  5
365
  8
SignTorch_CATTAIL003_
 10
5.977561363171418
 20
6.578638308036196
 30
0.0
 42
0.1286104200273261
  0
VERTEX
  5
366
  8
SignTorch_CATTAIL003_
 10
6.041004959106445
 20
6.371621277385287
 30
0.0
 42
0.0287476430869772
  0
VERTEX
  5
367
  8
SignTorch_CATTAIL003_
 10
6.066776477811978
 20
6.334800743810109
 30
0.0
 42
-0.1250806329451866
  0
VERTEX
  5
368
  8
SignTorch_CATTAIL003_
 10
6.085073318481445
 20
6.293750183635288
 30
0.0
 42
-0.051278462283993
  0
VERTEX
  5
369
  8
SignTorch_CATTAIL003_
 10
6.089994245246745
 20
6.221440428913519
 30
0.0
 42
0.0173007905890052
  0
VERTEX
  5
36A
  8
SignTorch_CATTAIL003_
 10
6.090004959106444
 20
6.086871277385288
 30
0.0
 42
-0.020425853034602
  0
VERTEX
  5
36B
  8
SignTorch_CATTAIL003_
 10
6.086201189777417
 20
5.470213036797092
 30
0.0
 42
0.0155449513523735
  0
VERTEX
  5
36C
  8
SignTorch_CATTAIL003_
 10
6.076379959106445
 20
4.853621277385288
 30
0.0
 42
-0.0104167823124169
  0
VERTEX
  5
36D
  8
SignTorch_CATTAIL003_
 10
6.074519432977496
 20
4.525623900940559
 30
0.0
 42
0.0130406939727754
  0
VERTEX
  5
36E
  8
SignTorch_CATTAIL003_
 10
6.074379959106445
 20
4.197621277385288
 30
0.0
 42
-0.0701776011779772
  0
VERTEX
  5
36F
  8
SignTorch_CATTAIL003_
 10
6.066203509851622
 20
4.126505273918782
 30
0.0
 42
-0.1079893282208769
  0
VERTEX
  5
370
  8
SignTorch_CATTAIL003_
 10
6.045004959106445
 20
4.084746277385287
 30
0.0
 42
0.0105652741769757
  0
VERTEX
  5
371
  8
SignTorch_CATTAIL003_
 10
5.955445597189972
 20
3.970240952755858
 30
0.0
 42
0.0387869923257149
  0
VERTEX
  5
372
  8
SignTorch_CATTAIL003_
 10
5.899254959106445
 20
3.881621277385287
 30
0.0
 42
0.0250322660939348
  0
VERTEX
  5
373
  8
SignTorch_CATTAIL003_
 10
5.861165101515114
 20
3.800186194190287
 30
0.0
 42
-0.6725776133727135
  0
VERTEX
  5
374
  8
SignTorch_CATTAIL003_
 10
5.835503005981445
 20
3.800207214885288
 30
0.0
 42
-0.0838171543866919
  0
VERTEX
  5
375
  8
SignTorch_CATTAIL003_
 10
5.82456592715523
 20
3.849447886415566
 30
0.0
 42
0.0258417789860846
  0
VERTEX
  5
376
  8
SignTorch_CATTAIL003_
 10
5.819379959106445
 20
3.899621277385287
 30
0.0
 42
0.0081444131977295
  0
VERTEX
  5
377
  8
SignTorch_CATTAIL003_
 10
5.786724413224285
 20
4.088774342559927
 30
0.0
 42
-0.0195211339812591
  0
VERTEX
  5
378
  8
SignTorch_CATTAIL003_
 10
5.758379959106445
 20
4.278621277385287
 30
0.0
 42
-0.0151608458060391
  0
VERTEX
  5
379
  8
SignTorch_CATTAIL003_
 10
5.701862936525085
 20
4.99389983788387
 30
0.0
 42
-0.0149814327505393
  0
VERTEX
  5
37A
  8
SignTorch_CATTAIL003_
 10
5.688379959106444
 20
5.719871277385288
 30
0.0
 42
-0.0367674747475339
  0
VERTEX
  5
37B
  8
SignTorch_CATTAIL003_
 10
5.703566586456379
 20
5.898334253822846
 30
0.0
 42
0.0164877247599962
  0
VERTEX
  5
37C
  8
SignTorch_CATTAIL003_
 10
5.725971755981445
 20
6.076035339885287
 30
0.0
 42
0.1671895732792854
  0
VERTEX
  5
37D
  8
SignTorch_CATTAIL003_
 10
5.716320908523437
 20
6.115666813281645
 30
0.0
 42
0.4664893935125946
  0
VERTEX
  5
37E
  8
SignTorch_CATTAIL003_
 10
5.699145584106445
 20
6.117871277385287
 30
0.0
 42
0.1536014397426889
  0
VERTEX
  5
37F
  8
SignTorch_CATTAIL003_
 10
5.68294512626242
 20
6.089620199866733
 30
0.0
 42
0.002176055174709
  0
VERTEX
  5
380
  8
SignTorch_CATTAIL003_
 10
5.655860427856445
 20
5.963470886760287
 30
0.0
 42
0.046067564419531
  0
VERTEX
  5
381
  8
SignTorch_CATTAIL003_
 10
5.589192282225188
 20
5.386663003277365
 30
0.0
 42
0.0289558522948783
  0
VERTEX
  5
382
  8
SignTorch_CATTAIL003_
 10
5.621379959106445
 20
4.464621277385287
 30
0.0
 42
0.0030870156909498
  0
VERTEX
  5
383
  8
SignTorch_CATTAIL003_
 10
5.670612830198518
 20
3.968766331662921
 30
0.0
 42
0.0150725717493406
  0
VERTEX
  5
384
  8
SignTorch_CATTAIL003_
 10
5.684379959106445
 20
3.867621277385288
 30
0.0
 42
-0.0014483060215415
  0
VERTEX
  5
385
  8
SignTorch_CATTAIL003_
 10
5.73707826061568
 20
3.546239176176936
 30
0.0
 42
-0.170824219037877
  0
VERTEX
  5
386
  8
SignTorch_CATTAIL003_
 10
5.715778396606445
 20
3.428351746135287
 30
0.0
 42
-0.6451698605487453
  0
VERTEX
  5
387
  8
SignTorch_CATTAIL003_
 10
5.691000098752787
 20
3.430644837821287
 30
0.0
 42
-0.0109374805711309
  0
VERTEX
  5
388
  8
SignTorch_CATTAIL003_
 10
5.664567459106444
 20
3.512965027385287
 30
0.0
 42
0.0157003890909851
  0
VERTEX
  5
389
  8
SignTorch_CATTAIL003_
 10
5.614655783529011
 20
3.663467278194337
 30
0.0
 42
0.0262746800958888
  0
VERTEX
  5
38A
  8
SignTorch_CATTAIL003_
 10
5.577379959106445
 20
3.750621277385287
 30
0.0
 42
0.0210399200807594
  0
VERTEX
  5
38B
  8
SignTorch_CATTAIL003_
 10
5.414159727294594
 20
4.050271591914623
 30
0.0
 42
0.0906411283798004
  0
VERTEX
  5
38C
  8
SignTorch_CATTAIL003_
 10
5.263379959106445
 20
4.221621277385288
 30
0.0
 42
-0.0001874083057888
  0
VERTEX
  5
38D
  8
SignTorch_CATTAIL003_
 10
5.179559663798815
 20
4.287858461213658
 30
0.0
 42
-0.1580807574039178
  0
VERTEX
  5
38E
  8
SignTorch_CATTAIL003_
 10
5.158379959106445
 20
4.319621277385288
 30
0.0
 42
-0.051204252612314
  0
VERTEX
  5
38F
  8
SignTorch_CATTAIL003_
 10
5.147033623745437
 20
4.384853488287126
 30
0.0
 42
0.022982754052246
  0
VERTEX
  5
390
  8
SignTorch_CATTAIL003_
 10
5.139379959106445
 20
4.450621277385288
 30
0.0
 42
0.0065237378605947
  0
VERTEX
  5
391
  8
SignTorch_CATTAIL003_
 10
5.100189851243826
 20
4.672458164107629
 30
0.0
 42
-0.0177853722046376
  0
VERTEX
  5
392
  8
SignTorch_CATTAIL003_
 10
5.066004959106444
 20
4.895121277385288
 30
0.0
 42
-0.0124427873919987
  0
VERTEX
  5
393
  8
SignTorch_CATTAIL003_
 10
5.049699752670477
 20
5.072070702197268
 30
0.0
 42
0.029743293983096
  0
VERTEX
  5
394
  8
SignTorch_CATTAIL003_
 10
5.037629959106445
 20
5.166996277385287
 30
0.0
 42
0.1201873964111698
  0
VERTEX
  5
395
  8
SignTorch_CATTAIL003_
 10
5.021174818203129
 20
5.203338313462222
 30
0.0
 42
0.3892408200894835
  0
VERTEX
  5
396
  8
SignTorch_CATTAIL003_
 10
5.007379959106445
 20
5.205621277385288
 30
0.0
 42
0.2065952218663041
  0
VERTEX
  5
397
  8
SignTorch_CATTAIL003_
 10
4.997665977411654
 20
5.190953544403704
 30
0.0
 42
0.0379851949664912
  0
VERTEX
  5
398
  8
SignTorch_CATTAIL003_
 10
4.988348709106445
 20
5.099527527385288
 30
0.0
 42
0.0302550408530769
  0
VERTEX
  5
399
  8
SignTorch_CATTAIL003_
 10
4.996410534751609
 20
4.868395880247932
 30
0.0
 42
0.0154570956503381
  0
VERTEX
  5
39A
  8
SignTorch_CATTAIL003_
 10
5.053379959106445
 20
4.419621277385287
 30
0.0
 42
-0.0397102059666747
  0
VERTEX
  5
39B
  8
SignTorch_CATTAIL003_
 10
5.05813645978461
 20
4.358608751020803
 30
0.0
 42
-0.3904740269646594
  0
VERTEX
  5
39C
  8
SignTorch_CATTAIL003_
 10
5.036672927856445
 20
4.335388855510288
 30
0.0
 42
-0.0704187817363317
  0
VERTEX
  5
39D
  8
SignTorch_CATTAIL003_
 10
4.978271409268299
 20
4.338923862317401
 30
0.0
 42
0.2560231061255194
  0
VERTEX
  5
39E
  8
SignTorch_CATTAIL003_
 10
4.922379959106444
 20
4.321621277385288
 30
0.0
 42
0.5826225698187345
  0
VERTEX
  5
39F
  8
SignTorch_CATTAIL003_
 10
4.930763580018893
 20
4.293089212237619
 30
0.0
 42
-0.0374633944166478
  0
VERTEX
  5
3A0
  8
SignTorch_CATTAIL003_
 10
5.033614334106445
 20
4.260730652385288
 30
0.0
 42
-0.2756261839448624
  0
VERTEX
  5
3A1
  8
SignTorch_CATTAIL003_
 10
5.085811083734594
 20
4.192522757768137
 30
0.0
 42
0.0127138392228413
  0
VERTEX
  5
3A2
  8
SignTorch_CATTAIL003_
 10
5.101379959106445
 20
4.082621277385288
 30
0.0
 42
0.0170397176213195
  0
VERTEX
  5
3A3
  8
SignTorch_CATTAIL003_
 10
5.170130171128825
 20
3.74386282787736
 30
0.0
 42
-0.0133467421108473
  0
VERTEX
  5
3A4
  8
SignTorch_CATTAIL003_
 10
5.241379959106445
 20
3.405621277385288
 30
0.0
 42
-0.1197145368459888
  0
VERTEX
  5
3A5
  8
SignTorch_CATTAIL003_
 10
5.240089961372328
 20
3.383162137898688
 30
0.0
 42
-0.5205647691352822
  0
VERTEX
  5
3A6
  8
SignTorch_CATTAIL003_
 10
5.233926834106445
 20
3.381152527385288
 30
0.0
 42
-0.151669328101174
  0
VERTEX
  5
3A7
  8
SignTorch_CATTAIL003_
 10
5.205609000622577
 20
3.42039995656878
 30
0.0
 42
0.0279625033688266
  0
VERTEX
  5
3A8
  8
SignTorch_CATTAIL003_
 10
5.172379959106444
 20
3.503621277385288
 30
0.0
 42
0.0442237874319091
  0
VERTEX
  5
3A9
  8
SignTorch_CATTAIL003_
 10
4.994375650928664
 20
3.811512941942701
 30
0.0
 42
0.0503704690055061
  0
VERTEX
  5
3AA
  8
SignTorch_CATTAIL003_
 10
4.915848709106444
 20
3.902277527385288
 30
0.0
 42
0.1389028254973533
  0
VERTEX
  5
3AB
  8
SignTorch_CATTAIL003_
 10
4.879381423483658
 20
3.921302893391212
 30
0.0
 42
0.4267448203878965
  0
VERTEX
  5
3AC
  8
SignTorch_CATTAIL003_
 10
4.866583084106445
 20
3.912511902385288
 30
0.0
 42
0.2332326636078404
  0
VERTEX
  5
3AD
  8
SignTorch_CATTAIL003_
 10
4.876685948720537
 20
3.879388228541145
 30
0.0
 42
-0.0569837406753468
  0
VERTEX
  5
3AE
  8
SignTorch_CATTAIL003_
 10
4.897379959106445
 20
3.851621277385287
 30
0.0
 42
-0.0393119235428136
  0
VERTEX
  5
3AF
  8
SignTorch_CATTAIL003_
 10
5.066940774210902
 20
3.498842122913234
 30
0.0
 42
-0.0110699025310063
  0
VERTEX
  5
3B0
  8
SignTorch_CATTAIL003_
 10
5.248379959106445
 20
2.997621277385288
 30
0.0
 42
-0.0274015998100118
  0
VERTEX
  5
3B1
  8
SignTorch_CATTAIL003_
 10
5.328789165134601
 20
2.707523756316583
 30
0.0
 42
-0.0874510115541654
  0
VERTEX
  5
3B2
  8
SignTorch_CATTAIL003_
 10
5.330629959106445
 20
2.662808777385288
 30
0.0
 42
-0.5773834932533113
  0
VERTEX
  5
3B3
  8
SignTorch_CATTAIL003_
 10
5.318384143657944
 20
2.657771713383871
 30
0.0
 42
-0.061988361320309
  0
VERTEX
  5
3B4
  8
SignTorch_CATTAIL003_
 10
5.301379959106445
 20
2.674621277385288
 30
0.0
 42
-0.0184913257493269
  0
VERTEX
  5
3B5
  8
SignTorch_CATTAIL003_
 10
5.229522609049948
 20
2.773347815770062
 30
0.0
 42
0.014343710779413
  0
SEQEND
  5
3B6
  8
SignTorch_CATTAIL003_
  0
ENDSEC
  0
EOF
