  0
SECTION
  2
HEADER
  9
$ACADVER
  1
AC1009
  9
$DWGCODEPAGE
  3
ansi_1252
  9
$INSBASE
 10
0.0
 20
0.0
 30
0.0
  9
$EXTMIN
 10
-0.4966776094975163
 20
-2.430714191496218
 30
0.0
  9
$EXTMAX
 10
15.49533665765422
 20
11.42812593295839
 30
0.0
  9
$LIMMIN
 10
0.0
 20
0.0
  9
$LIMMAX
 10
12.0
 20
9.0
  9
$ORTHOMODE
 70
     0
  9
$REGENMODE
 70
     1
  9
$FILLMODE
 70
     1
  9
$QTEXTMODE
 70
     0
  9
$MIRRTEXT
 70
     1
  9
$DRAGMODE
 70
     2
  9
$LTSCALE
 40
1.0
  9
$OSMODE
 70
    37
  9
$ATTMODE
 70
     1
  9
$TEXTSIZE
 40
0.2
  9
$TRACEWID
 40
0.05
  9
$TEXTSTYLE
  7
STANDARD
  9
$CLAYER
  8
0
  9
$CELTYPE
  6
BYLAYER
  9
$CECOLOR
 62
   256
  9
$DIMSCALE
 40
1.0
  9
$DIMASZ
 40
0.18
  9
$DIMEXO
 40
0.0625
  9
$DIMDLI
 40
0.38
  9
$DIMRND
 40
0.0
  9
$DIMDLE
 40
0.0
  9
$DIMEXE
 40
0.18
  9
$DIMTP
 40
0.0
  9
$DIMTM
 40
0.0
  9
$DIMTXT
 40
0.18
  9
$DIMCEN
 40
0.09
  9
$DIMTSZ
 40
0.0
  9
$DIMTOL
 70
     0
  9
$DIMLIM
 70
     0
  9
$DIMTIH
 70
     1
  9
$DIMTOH
 70
     1
  9
$DIMSE1
 70
     0
  9
$DIMSE2
 70
     0
  9
$DIMTAD
 70
     0
  9
$DIMZIN
 70
     0
  9
$DIMBLK
  1

  9
$DIMASO
 70
     1
  9
$DIMSHO
 70
     1
  9
$DIMPOST
  1

  9
$DIMAPOST
  1

  9
$DIMALT
 70
     0
  9
$DIMALTD
 70
     2
  9
$DIMALTF
 40
25.4
  9
$DIMLFAC
 40
1.0
  9
$DIMTOFL
 70
     0
  9
$DIMTVP
 40
0.0
  9
$DIMTIX
 70
     0
  9
$DIMSOXD
 70
     0
  9
$DIMSAH
 70
     0
  9
$DIMBLK1
  1

  9
$DIMBLK2
  1

  9
$DIMSTYLE
  2
STANDARD
  9
$DIMCLRD
 70
     0
  9
$DIMCLRE
 70
     0
  9
$DIMCLRT
 70
     0
  9
$DIMTFAC
 40
1.0
  9
$DIMGAP
 40
0.09
  9
$LUNITS
 70
     2
  9
$LUPREC
 70
     4
  9
$SKETCHINC
 40
0.1
  9
$FILLETRAD
 40
0.5
  9
$AUNITS
 70
     0
  9
$AUPREC
 70
     0
  9
$MENU
  1
.
  9
$ELEVATION
 40
0.0
  9
$PELEVATION
 40
0.0
  9
$THICKNESS
 40
0.0
  9
$LIMCHECK
 70
     0
  9
$CHAMFERA
 40
0.5
  9
$CHAMFERB
 40
0.5
  9
$SKPOLY
 70
     0
  9
$TDCREATE
 40
2454910.5
  9
$TDUPDATE
 40
2455562.331923275
  9
$TDINDWG
 40
0.0000000116
  9
$TDUSRTIMER
 40
0.0000000116
  9
$USRTIMER
 70
     1
  9
$ANGBASE
 50
0.0
  9
$ANGDIR
 70
     0
  9
$PDMODE
 70
     0
  9
$PDSIZE
 40
0.0
  9
$PLINEWID
 40
0.0
  9
$COORDS
 70
     1
  9
$SPLFRAME
 70
     0
  9
$SPLINETYPE
 70
     6
  9
$SPLINESEGS
 70
     8
  9
$ATTDIA
 70
     0
  9
$ATTREQ
 70
     1
  9
$HANDLING
 70
     1
  9
$HANDSEED
  5
5AA
  9
$SURFTAB1
 70
     6
  9
$SURFTAB2
 70
     6
  9
$SURFTYPE
 70
     6
  9
$SURFU
 70
     6
  9
$SURFV
 70
     6
  9
$UCSNAME
  2

  9
$UCSORG
 10
0.0
 20
0.0
 30
0.0
  9
$UCSXDIR
 10
1.0
 20
0.0
 30
0.0
  9
$UCSYDIR
 10
0.0
 20
1.0
 30
0.0
  9
$PUCSNAME
  2

  9
$PUCSORG
 10
0.0
 20
0.0
 30
0.0
  9
$PUCSXDIR
 10
1.0
 20
0.0
 30
0.0
  9
$PUCSYDIR
 10
0.0
 20
1.0
 30
0.0
  9
$USERI1
 70
     0
  9
$USERI2
 70
     0
  9
$USERI3
 70
     0
  9
$USERI4
 70
     0
  9
$USERI5
 70
     0
  9
$USERR1
 40
0.0
  9
$USERR2
 40
0.0
  9
$USERR3
 40
0.0
  9
$USERR4
 40
0.0
  9
$USERR5
 40
0.0
  9
$WORLDVIEW
 70
     1
  9
$SHADEDGE
 70
     3
  9
$SHADEDIF
 70
    70
  9
$TILEMODE
 70
     1
  9
$MAXACTVP
 70
    64
  9
$PLIMCHECK
 70
     0
  9
$PEXTMIN
 10
1.000000000000000E+20
 20
1.000000000000000E+20
 30
1.000000000000000E+20
  9
$PEXTMAX
 10
-1.000000000000000E+20
 20
-1.000000000000000E+20
 30
-1.000000000000000E+20
  9
$PLIMMIN
 10
0.0
 20
0.0
  9
$PLIMMAX
 10
12.0
 20
9.0
  9
$UNITMODE
 70
     0
  9
$VISRETAIN
 70
     1
  9
$PLINEGEN
 70
     0
  9
$PSLTSCALE
 70
     1
  0
ENDSEC
  0
SECTION
  2
TABLES
  0
TABLE
  2
VPORT
 70
     1
  0
VPORT
  2
*ACTIVE
 70
     0
 10
0.0
 20
0.0
 11
1.0
 21
1.0
 12
10.42990654205607
 22
4.5
 13
0.0
 23
0.0
 14
0.5
 24
0.5
 15
0.5
 25
0.5
 16
0.0
 26
0.0
 36
1.0
 17
0.0
 27
0.0
 37
0.0
 40
9.0
 41
1.972972972850329
 42
50.0
 43
0.0
 44
0.0
 50
0.0
 51
0.0
 71
     0
 72
   100
 73
     1
 74
     3
 75
     0
 76
     0
 77
     0
 78
     0
  0
ENDTAB
  0
TABLE
  2
LTYPE
 70
     2
  0
LTYPE
  2
CONTINUOUS
 70
     0
  3
Solid line
 72
    65
 73
     0
 40
0.0
  0
LTYPE
  2
CONTINUOUS2
 70
     0
  3
Solid Line
 72
    65
 73
     0
 40
0.0
  0
ENDTAB
  0
TABLE
  2
LAYER
 70
     2
  0
LAYER
  2
0
 70
     0
 62
     7
  6
CONTINUOUS
  0
LAYER
  2
SignTorch_-_COON021_
 70
     0
 62
    18
  6
CONTINUOUS
  0
ENDTAB
  0
TABLE
  2
STYLE
 70
     1
  0
STYLE
  2
STANDARD
 70
     0
 40
0.0
 41
1.0
 50
0.0
 71
     0
 42
0.2
  3
txt
  4

  0
ENDTAB
  0
TABLE
  2
VIEW
 70
     0
  0
ENDTAB
  0
TABLE
  2
UCS
 70
     0
  0
ENDTAB
  0
TABLE
  2
APPID
 70
     1
  0
APPID
  2
ACAD
 70
     0
  0
ENDTAB
  0
TABLE
  2
DIMSTYLE
 70
     1
  0
DIMSTYLE
  2
STANDARD
 70
     0
  3

  4

  5

  6

  7

 40
1.0
 41
0.18
 42
0.0625
 43
0.38
 44
0.18
 45
0.0
 46
0.0
 47
0.0
 48
0.0
140
0.18
141
0.09
142
0.0
143
25.4
144
1.0
145
0.0
146
1.0
147
0.09
 71
     0
 72
     0
 73
     1
 74
     1
 75
     0
 76
     0
 77
     0
 78
     0
170
     0
171
     2
172
     0
173
     0
174
     0
175
     0
176
     0
177
     0
178
     0
  0
ENDTAB
  0
ENDSEC
  0
SECTION
  2
BLOCKS
  0
BLOCK
  8
0
  2
$MODEL_SPACE
 70
     0
 10
0.0
 20
0.0
 30
0.0
  3
$MODEL_SPACE
  1

  0
ENDBLK
  5
21
  8
0
  0
BLOCK
 67
     1
  8
0
  2
$PAPER_SPACE
 70
     0
 10
0.0
 20
0.0
 30
0.0
  3
$PAPER_SPACE
  1

  0
ENDBLK
  5
1D
 67
     1
  8
0
  0
ENDSEC
  0
SECTION
  2
ENTITIES
  0
POLYLINE
  5
41
  8
SignTorch_-_COON021_
 66
     1
 10
0.0
 20
0.0
 30
0.0
 70
     1
  0
VERTEX
  5
56
  8
SignTorch_-_COON021_
 10
1.156349029541016
 20
9.01462593295839
 30
0.0
 42
0.0220770155384039
  0
VERTEX
  5
57
  8
SignTorch_-_COON021_
 10
1.389889321053998
 20
8.959484090843835
 30
0.0
 42
-0.047354094076605
  0
VERTEX
  5
58
  8
SignTorch_-_COON021_
 10
1.620349029541015
 20
8.892625932958392
 30
0.0
 42
-0.0851365188136832
  0
VERTEX
  5
59
  8
SignTorch_-_COON021_
 10
1.701505236756509
 20
8.843218835641927
 30
0.0
 42
-0.2998447178461662
  0
VERTEX
  5
5A
  8
SignTorch_-_COON021_
 10
1.72080923461914
 20
8.77385884311464
 30
0.0
 42
-0.1386779908289923
  0
VERTEX
  5
5B
  8
SignTorch_-_COON021_
 10
1.67463948352072
 20
8.704420485748065
 30
0.0
 42
0.130625015590889
  0
VERTEX
  5
5C
  8
SignTorch_-_COON021_
 10
1.627377105712891
 20
8.635721147802139
 30
0.0
 42
0.4515453255727661
  0
VERTEX
  5
5D
  8
SignTorch_-_COON021_
 10
1.661372985185697
 20
8.574291146201173
 30
0.0
 42
-0.0239554904884128
  0
VERTEX
  5
5E
  8
SignTorch_-_COON021_
 10
1.915349029541015
 20
8.50537593295839
 30
0.0
 42
-0.0203657846991319
  0
VERTEX
  5
5F
  8
SignTorch_-_COON021_
 10
2.158059491114914
 20
8.415790115736302
 30
0.0
 42
-0.1314528476738153
  0
VERTEX
  5
60
  8
SignTorch_-_COON021_
 10
2.190364654541016
 20
8.390938432958393
 30
0.0
 42
-0.2437057637381493
  0
VERTEX
  5
61
  8
SignTorch_-_COON021_
 10
2.197231446426245
 20
8.352230074338163
 30
0.0
 42
-0.1319130270728074
  0
VERTEX
  5
62
  8
SignTorch_-_COON021_
 10
2.159895904541016
 20
8.29331343295839
 30
0.0
 42
0.0219088939232449
  0
VERTEX
  5
63
  8
SignTorch_-_COON021_
 10
2.12580511150458
 20
8.259081516384285
 30
0.0
 42
0.4212275187298064
  0
VERTEX
  5
64
  8
SignTorch_-_COON021_
 10
2.128489654541016
 20
8.21270405795839
 30
0.0
 42
0.094371745270617
  0
VERTEX
  5
65
  8
SignTorch_-_COON021_
 10
2.210012475260176
 20
8.16521749406198
 30
0.0
 42
-0.1239336316238653
  0
VERTEX
  5
66
  8
SignTorch_-_COON021_
 10
2.524349029541015
 20
7.956625932958391
 30
0.0
 42
-0.0486928893032147
  0
VERTEX
  5
67
  8
SignTorch_-_COON021_
 10
2.740301060645909
 20
7.667188101257078
 30
0.0
 42
-0.1069726299141602
  0
VERTEX
  5
68
  8
SignTorch_-_COON021_
 10
2.764356353759765
 20
7.597087358739641
 30
0.0
 42
-0.1405035461122738
  0
VERTEX
  5
69
  8
SignTorch_-_COON021_
 10
2.760473421762985
 20
7.573291626307328
 30
0.0
 42
-0.3927243789567548
  0
VERTEX
  5
6A
  8
SignTorch_-_COON021_
 10
2.751411529541016
 20
7.569657182958389
 30
0.0
 42
-0.164927204998731
  0
VERTEX
  5
6B
  8
SignTorch_-_COON021_
 10
2.72171782230473
 20
7.59436085518688
 30
0.0
 42
0.0251989138775592
  0
VERTEX
  5
6C
  8
SignTorch_-_COON021_
 10
2.635099029541016
 20
7.720875932958391
 30
0.0
 42
0.0105690809729666
  0
VERTEX
  5
6D
  8
SignTorch_-_COON021_
 10
2.509385337139481
 20
7.878944495748528
 30
0.0
 42
0.0746365630057743
  0
VERTEX
  5
6E
  8
SignTorch_-_COON021_
 10
2.340599029541015
 20
8.02962593295839
 30
0.0
 42
0.061079159149869
  0
VERTEX
  5
6F
  8
SignTorch_-_COON021_
 10
2.097628321455951
 20
8.149335350691562
 30
0.0
 42
-0.0568508178915957
  0
VERTEX
  5
70
  8
SignTorch_-_COON021_
 10
2.036635162353515
 20
8.17874995639589
 30
0.0
 42
-0.1978659981308973
  0
VERTEX
  5
71
  8
SignTorch_-_COON021_
 10
2.015388234483368
 20
8.208689810637809
 30
0.0
 42
-0.193435540062879
  0
VERTEX
  5
72
  8
SignTorch_-_COON021_
 10
2.021200592041015
 20
8.24572749545839
 30
0.0
 42
-0.1136832859733372
  0
VERTEX
  5
73
  8
SignTorch_-_COON021_
 10
2.080898791627249
 20
8.308010974796225
 30
0.0
 42
0.2953662202347217
  0
VERTEX
  5
74
  8
SignTorch_-_COON021_
 10
2.099794342041015
 20
8.35075874545839
 30
0.0
 42
0.228355123397245
  0
VERTEX
  5
75
  8
SignTorch_-_COON021_
 10
2.090704147631481
 20
8.363842412346033
 30
0.0
 42
0.0424773108876133
  0
VERTEX
  5
76
  8
SignTorch_-_COON021_
 10
2.016567779541016
 20
8.39781343295839
 30
0.0
 42
0.0283074356444705
  0
VERTEX
  5
77
  8
SignTorch_-_COON021_
 10
1.744162977040308
 20
8.478559352400858
 30
0.0
 42
-0.0271155547282025
  0
VERTEX
  5
78
  8
SignTorch_-_COON021_
 10
1.597380279541015
 20
8.521688432958388
 30
0.0
 42
-0.1076244770345224
  0
VERTEX
  5
79
  8
SignTorch_-_COON021_
 10
1.541314923928244
 20
8.556404873161203
 30
0.0
 42
-0.220847059689019
  0
VERTEX
  5
7A
  8
SignTorch_-_COON021_
 10
1.529352935791016
 20
8.587500932958388
 30
0.0
 42
-0.1714982216215007
  0
VERTEX
  5
7B
  8
SignTorch_-_COON021_
 10
1.568735760088947
 20
8.67881671989394
 30
0.0
 42
0.0621057951547992
  0
VERTEX
  5
7C
  8
SignTorch_-_COON021_
 10
1.626745513916015
 20
8.75959077670839
 30
0.0
 42
0.1241149574332156
  0
VERTEX
  5
7D
  8
SignTorch_-_COON021_
 10
1.634582619995085
 20
8.790054561731182
 30
0.0
 42
0.2181717949022801
  0
VERTEX
  5
7E
  8
SignTorch_-_COON021_
 10
1.626974029541015
 20
8.806875932958391
 30
0.0
 42
0.080820262316001
  0
VERTEX
  5
7F
  8
SignTorch_-_COON021_
 10
1.604119382602267
 20
8.821049610776292
 30
0.0
 42
0.0141345130792104
  0
VERTEX
  5
80
  8
SignTorch_-_COON021_
 10
1.461411529541015
 20
8.875672807958392
 30
0.0
 42
0.0361989147669751
  0
VERTEX
  5
81
  8
SignTorch_-_COON021_
 10
1.336546624023201
 20
8.909548942706975
 30
0.0
 42
-0.034440148551285
  0
VERTEX
  5
82
  8
SignTorch_-_COON021_
 10
0.8366146545410156
 20
9.043297807958389
 30
0.0
 42
-0.0135147077485551
  0
VERTEX
  5
83
  8
SignTorch_-_COON021_
 10
0.7164945255010896
 20
9.088140502001172
 30
0.0
 42
-0.2835310024231049
  0
VERTEX
  5
84
  8
SignTorch_-_COON021_
 10
0.6968548889160155
 20
9.11485640170839
 30
0.0
 42
-0.4404870965996757
  0
VERTEX
  5
85
  8
SignTorch_-_COON021_
 10
0.7130550764357293
 20
9.13229939608948
 30
0.0
 42
-0.0666495207026386
  0
VERTEX
  5
86
  8
SignTorch_-_COON021_
 10
0.8440990295410155
 20
9.11375093295839
 30
0.0
 42
-0.0165537420843964
  0
VERTEX
  5
87
  8
SignTorch_-_COON021_
 10
1.000252541851827
 20
9.064278248535198
 30
0.0
 42
0.0159783100068797
  0
SEQEND
  5
88
  8
SignTorch_-_COON021_
  0
POLYLINE
  5
42
  8
SignTorch_-_COON021_
 66
     1
 10
0.0
 20
0.0
 30
0.0
 70
     1
  0
VERTEX
  5
89
  8
SignTorch_-_COON021_
 10
7.704317779541016
 20
-0.746342817041609
 30
0.0
 42
0.0110890174972134
  0
VERTEX
  5
8A
  8
SignTorch_-_COON021_
 10
8.239229994099633
 20
-0.7045726484680115
 30
0.0
 42
0.0202415449904082
  0
VERTEX
  5
8B
  8
SignTorch_-_COON021_
 10
8.530349029541016
 20
-0.663374067041609
 30
0.0
 42
-0.010739588870897
  0
VERTEX
  5
8C
  8
SignTorch_-_COON021_
 10
9.167505737263205
 20
-0.560822230424709
 30
0.0
 42
-0.0211670586956159
  0
VERTEX
  5
8D
  8
SignTorch_-_COON021_
 10
9.380349029541016
 20
-0.540374067041609
 30
0.0
 42
-0.0988311160979506
  0
VERTEX
  5
8E
  8
SignTorch_-_COON021_
 10
9.44229121229166
 20
-0.5493288877103025
 30
0.0
 42
-0.3818752223355512
  0
VERTEX
  5
8F
  8
SignTorch_-_COON021_
 10
9.482214263916015
 20
-0.6222978951666089
 30
0.0
 42
-0.1984809531629213
  0
VERTEX
  5
90
  8
SignTorch_-_COON021_
 10
9.420340356594822
 20
-0.7088194829090299
 30
0.0
 42
0.1605034269513839
  0
VERTEX
  5
91
  8
SignTorch_-_COON021_
 10
9.383679107666016
 20
-0.752844770166609
 30
0.0
 42
0.2425744218647904
  0
VERTEX
  5
92
  8
SignTorch_-_COON021_
 10
9.386205482521822
 20
-0.7780586082921719
 30
0.0
 42
0.0941423441769376
  0
VERTEX
  5
93
  8
SignTorch_-_COON021_
 10
9.429224029541016
 20
-0.8229990670416091
 30
0.0
 42
-0.0170600499819343
  0
VERTEX
  5
94
  8
SignTorch_-_COON021_
 10
9.520183307304697
 20
-0.8926691776188174
 30
0.0
 42
-0.4184716123878631
  0
VERTEX
  5
95
  8
SignTorch_-_COON021_
 10
9.524645904541014
 20
-0.9419033639166089
 30
0.0
 42
-0.1943412429848285
  0
VERTEX
  5
96
  8
SignTorch_-_COON021_
 10
9.501479235123638
 20
-0.9541010316094465
 30
0.0
 42
-0.0584703029068595
  0
VERTEX
  5
97
  8
SignTorch_-_COON021_
 10
9.417349029541015
 20
-0.9527490670416089
 30
0.0
 42
-0.0316581815252067
  0
VERTEX
  5
98
  8
SignTorch_-_COON021_
 10
9.302682749195585
 20
-0.9299617646469485
 30
0.0
 42
0.1338580770911798
  0
VERTEX
  5
99
  8
SignTorch_-_COON021_
 10
9.185776763916015
 20
-0.930741254541609
 30
0.0
 42
0.1499319354986661
  0
VERTEX
  5
9A
  8
SignTorch_-_COON021_
 10
9.154471309420758
 20
-0.9508268798936258
 30
0.0
 42
0.1931225804128298
  0
VERTEX
  5
9B
  8
SignTorch_-_COON021_
 10
9.145224029541016
 20
-0.9786240670416091
 30
0.0
 42
0.1043897868685167
  0
VERTEX
  5
9C
  8
SignTorch_-_COON021_
 10
9.163345178506306
 20
-1.044505032506206
 30
0.0
 42
-0.4610591965028116
  0
VERTEX
  5
9D
  8
SignTorch_-_COON021_
 10
9.137520904541015
 20
-1.107764692041609
 30
0.0
 42
-0.1938872183207734
  0
VERTEX
  5
9E
  8
SignTorch_-_COON021_
 10
9.115729357140763
 20
-1.106371866905107
 30
0.0
 42
-0.0364862510099415
  0
VERTEX
  5
9F
  8
SignTorch_-_COON021_
 10
9.018538482666017
 20
-1.050751020166609
 30
0.0
 42
0.0713155062288414
  0
VERTEX
  5
A0
  8
SignTorch_-_COON021_
 10
8.941083170467765
 20
-1.013303216677754
 30
0.0
 42
0.2203148554005328
  0
VERTEX
  5
A1
  8
SignTorch_-_COON021_
 10
8.817192047119141
 20
-1.028965131494734
 30
0.0
 42
0.0426801624043063
  0
VERTEX
  5
A2
  8
SignTorch_-_COON021_
 10
8.756727128404766
 20
-1.074432819156069
 30
0.0
 42
-0.0733312405206845
  0
VERTEX
  5
A3
  8
SignTorch_-_COON021_
 10
8.693599029541016
 20
-1.116124067041609
 30
0.0
 42
-0.0402416163638922
  0
VERTEX
  5
A4
  8
SignTorch_-_COON021_
 10
8.591106272785348
 20
-1.154331828072824
 30
0.0
 42
-0.066223527802763
  0
VERTEX
  5
A5
  8
SignTorch_-_COON021_
 10
8.525145904541017
 20
-1.163905317041609
 30
0.0
 42
0.0192646509164028
  0
VERTEX
  5
A6
  8
SignTorch_-_COON021_
 10
8.445473505877214
 20
-1.167924540366992
 30
0.0
 42
0.1138116208824995
  0
VERTEX
  5
A7
  8
SignTorch_-_COON021_
 10
8.401132232666015
 20
-1.182401410791609
 30
0.0
 42
0.0348051839842574
  0
VERTEX
  5
A8
  8
SignTorch_-_COON021_
 10
8.349656670003222
 20
-1.218517278655409
 30
0.0
 42
-0.1526538439878008
  0
VERTEX
  5
A9
  8
SignTorch_-_COON021_
 10
8.291224029541016
 20
-1.241749067041609
 30
0.0
 42
-0.0712838941052798
  0
VERTEX
  5
AA
  8
SignTorch_-_COON021_
 10
8.230701087063142
 20
-1.237695531857385
 30
0.0
 42
0.1812427880672084
  0
VERTEX
  5
AB
  8
SignTorch_-_COON021_
 10
8.170718170166015
 20
-1.246723676416609
 30
0.0
 42
0.1559652445142856
  0
VERTEX
  5
AC
  8
SignTorch_-_COON021_
 10
8.105614108126042
 20
-1.31613683731301
 30
0.0
 42
-0.3102408918270179
  0
VERTEX
  5
AD
  8
SignTorch_-_COON021_
 10
7.953349029541016
 20
-1.404374067041609
 30
0.0
 42
0.1363062378070714
  0
VERTEX
  5
AE
  8
SignTorch_-_COON021_
 10
7.821254486713727
 20
-1.430395357240136
 30
0.0
 42
-0.1827065737828198
  0
VERTEX
  5
AF
  8
SignTorch_-_COON021_
 10
7.687349029541015
 20
-1.444374067041609
 30
0.0
 42
-0.145391107334127
  0
VERTEX
  5
B0
  8
SignTorch_-_COON021_
 10
7.533770210087014
 20
-1.351021526221436
 30
0.0
 42
0.2195121637148565
  0
VERTEX
  5
B1
  8
SignTorch_-_COON021_
 10
7.492349029541016
 20
-1.333374067041609
 30
0.0
 42
0.1703329947935377
  0
VERTEX
  5
B2
  8
SignTorch_-_COON021_
 10
7.345650595409185
 20
-1.38974007674268
 30
0.0
 42
-0.065600528297134
  0
VERTEX
  5
B3
  8
SignTorch_-_COON021_
 10
7.213618560791016
 20
-1.474975629541609
 30
0.0
 42
-0.4420800550163538
  0
VERTEX
  5
B4
  8
SignTorch_-_COON021_
 10
7.105115910448292
 20
-1.430342475687834
 30
0.0
 42
0.1642593031657117
  0
VERTEX
  5
B5
  8
SignTorch_-_COON021_
 10
7.065192779541015
 20
-1.380327192041609
 30
0.0
 42
0.2449160141966801
  0
VERTEX
  5
B6
  8
SignTorch_-_COON021_
 10
6.999444418151523
 20
-1.374317210674589
 30
0.0
 42
-0.0310453538960115
  0
VERTEX
  5
B7
  8
SignTorch_-_COON021_
 10
6.884349029541015
 20
-1.413374067041609
 30
0.0
 42
-0.0914145312369473
  0
VERTEX
  5
B8
  8
SignTorch_-_COON021_
 10
6.820506133982612
 20
-1.418669589012468
 30
0.0
 42
-0.0996152516195654
  0
VERTEX
  5
B9
  8
SignTorch_-_COON021_
 10
6.764224029541015
 20
-1.401374067041609
 30
0.0
 42
0.1929580585853468
  0
VERTEX
  5
BA
  8
SignTorch_-_COON021_
 10
6.588206137687632
 20
-1.380955672469307
 30
0.0
 42
-0.1998822542155182
  0
VERTEX
  5
BB
  8
SignTorch_-_COON021_
 10
6.544272857666015
 20
-1.375264692041609
 30
0.0
 42
-0.2161761966638162
  0
VERTEX
  5
BC
  8
SignTorch_-_COON021_
 10
6.51897459982338
 20
-1.33994895456839
 30
0.0
 42
0.3360545447841694
  0
VERTEX
  5
BD
  8
SignTorch_-_COON021_
 10
6.458821685791015
 20
-1.286485395166609
 30
0.0
 42
0.133060435599121
  0
VERTEX
  5
BE
  8
SignTorch_-_COON021_
 10
6.354871732220805
 20
-1.306086293941275
 30
0.0
 42
-0.0268143749626848
  0
VERTEX
  5
BF
  8
SignTorch_-_COON021_
 10
6.174126373291015
 20
-1.381934613916609
 30
0.0
 42
-0.1145905502006255
  0
VERTEX
  5
C0
  8
SignTorch_-_COON021_
 10
6.10380289645365
 20
-1.390094842102943
 30
0.0
 42
-0.2632539389724857
  0
VERTEX
  5
C1
  8
SignTorch_-_COON021_
 10
6.077474029541015
 20
-1.370999067041609
 30
0.0
 42
-0.1445665879547117
  0
VERTEX
  5
C2
  8
SignTorch_-_COON021_
 10
6.069774521290937
 20
-1.316885034130275
 30
0.0
 42
0.3512979320873537
  0
VERTEX
  5
C3
  8
SignTorch_-_COON021_
 10
6.054786529541015
 20
-1.291295942041609
 30
0.0
 42
0.1619208595123858
  0
VERTEX
  5
C4
  8
SignTorch_-_COON021_
 10
6.024824964639575
 20
-1.28996993739177
 30
0.0
 42
-0.4483446878269315
  0
VERTEX
  5
C5
  8
SignTorch_-_COON021_
 10
5.999513092041015
 20
-1.273883832666609
 30
0.0
 42
-0.1160295353316385
  0
VERTEX
  5
C6
  8
SignTorch_-_COON021_
 10
6.002661660930985
 20
-1.228528283210104
 30
0.0
 42
-0.0890180278754536
  0
VERTEX
  5
C7
  8
SignTorch_-_COON021_
 10
6.070099029541016
 20
-1.098327192041609
 30
0.0
 42
-0.1167708605641132
  0
VERTEX
  5
C8
  8
SignTorch_-_COON021_
 10
6.208257145250569
 20
-0.9859543162480491
 30
0.0
 42
-0.0660943628014301
  0
VERTEX
  5
C9
  8
SignTorch_-_COON021_
 10
6.504349029541015
 20
-0.888374067041609
 30
0.0
 42
-0.0043121255613798
  0
VERTEX
  5
CA
  8
SignTorch_-_COON021_
 10
6.973984337804678
 20
-0.8040154709832852
 30
0.0
 42
-0.0164281975906198
  0
VERTEX
  5
CB
  8
SignTorch_-_COON021_
 10
7.098099029541015
 20
-0.7869990670416089
 30
0.0
 42
-0.0091088270005156
  0
VERTEX
  5
CC
  8
SignTorch_-_COON021_
 10
7.240571552785726
 20
-0.7748335074426348
 30
0.0
 42
-0.0028031093429061
  0
SEQEND
  5
CD
  8
SignTorch_-_COON021_
  0
POLYLINE
  5
43
  8
SignTorch_-_COON021_
 66
     1
 10
0.0
 20
0.0
 30
0.0
 70
     1
  0
VERTEX
  5
CE
  8
SignTorch_-_COON021_
 10
13.27034902954101
 20
0.533625932958391
 30
0.0
 42
-0.0457067941697615
  0
VERTEX
  5
CF
  8
SignTorch_-_COON021_
 10
13.53087077983268
 20
0.3624778686423967
 30
0.0
 42
-0.1924569104127556
  0
VERTEX
  5
D0
  8
SignTorch_-_COON021_
 10
13.56879995727539
 20
0.2959157278802659
 30
0.0
 42
-0.3955664153154373
  0
VERTEX
  5
D1
  8
SignTorch_-_COON021_
 10
13.52783700021585
 20
0.2380100023634456
 30
0.0
 42
0.0409439219933907
  0
VERTEX
  5
D2
  8
SignTorch_-_COON021_
 10
13.26758340454102
 20
0.1621571829583909
 30
0.0
 42
0.0915466762484815
  0
VERTEX
  5
D3
  8
SignTorch_-_COON021_
 10
13.19545892397718
 20
0.1181327719225761
 30
0.0
 42
0.4215342645256754
  0
VERTEX
  5
D4
  8
SignTorch_-_COON021_
 10
13.19455215454101
 20
0.096719682958391
 30
0.0
 42
0.2091128533368072
  0
VERTEX
  5
D5
  8
SignTorch_-_COON021_
 10
13.22723801129553
 20
0.0827857560049825
 30
0.0
 42
-0.0811940476698923
  0
VERTEX
  5
D6
  8
SignTorch_-_COON021_
 10
13.36683340454102
 20
0.061299761083391
 30
0.0
 42
-0.069101151409288
  0
VERTEX
  5
D7
  8
SignTorch_-_COON021_
 10
13.72627882071468
 20
-0.1135455354454304
 30
0.0
 42
-0.1081600812230517
  0
VERTEX
  5
D8
  8
SignTorch_-_COON021_
 10
13.80081777954102
 20
-0.191251752588484
 30
0.0
 42
-0.1295761502605002
  0
VERTEX
  5
D9
  8
SignTorch_-_COON021_
 10
13.8137491114424
 20
-0.2343652991977885
 30
0.0
 42
-0.1756930038685165
  0
VERTEX
  5
DA
  8
SignTorch_-_COON021_
 10
13.80334902954102
 20
-0.2663740670416092
 30
0.0
 42
-0.1336035951479126
  0
VERTEX
  5
DB
  8
SignTorch_-_COON021_
 10
13.75292698994864
 20
-0.3041647146145769
 30
0.0
 42
0.0471568994481722
  0
VERTEX
  5
DC
  8
SignTorch_-_COON021_
 10
13.52907168579102
 20
-0.418377973291609
 30
0.0
 42
0.1266065076592591
  0
VERTEX
  5
DD
  8
SignTorch_-_COON021_
 10
13.49362241097516
 20
-0.4562098055840209
 30
0.0
 42
0.3164242522729957
  0
VERTEX
  5
DE
  8
SignTorch_-_COON021_
 10
13.49613027954102
 20
-0.4785303170416089
 30
0.0
 42
0.1303259611455764
  0
VERTEX
  5
DF
  8
SignTorch_-_COON021_
 10
13.53980854438079
 20
-0.5075736890215582
 30
0.0
 42
-0.115964086102826
  0
VERTEX
  5
E0
  8
SignTorch_-_COON021_
 10
13.71772402954102
 20
-0.6187490670416089
 30
0.0
 42
-0.0188929926409694
  0
VERTEX
  5
E1
  8
SignTorch_-_COON021_
 10
13.79586876021742
 20
-0.7037143611161571
 30
0.0
 42
0.0128083524648604
  0
VERTEX
  5
E2
  8
SignTorch_-_COON021_
 10
13.87297402954102
 20
-0.789624067041609
 30
0.0
 42
-0.1380344414436427
  0
VERTEX
  5
E3
  8
SignTorch_-_COON021_
 10
13.9093575405943
 20
-0.8590484777037465
 30
0.0
 42
-0.2569219369811563
  0
VERTEX
  5
E4
  8
SignTorch_-_COON021_
 10
13.89656777954102
 20
-0.901202192041609
 30
0.0
 42
-0.1532324053594309
  0
VERTEX
  5
E5
  8
SignTorch_-_COON021_
 10
13.82463296348229
 20
-0.937665848675197
 30
0.0
 42
0.1964030256878611
  0
VERTEX
  5
E6
  8
SignTorch_-_COON021_
 10
13.75600137329102
 20
-0.9800205514166089
 30
0.0
 42
0.2328356725578857
  0
VERTEX
  5
E7
  8
SignTorch_-_COON021_
 10
13.74833013549741
 20
-1.024053040239378
 30
0.0
 42
-0.0754913237372869
  0
VERTEX
  5
E8
  8
SignTorch_-_COON021_
 10
13.77205020141601
 20
-1.199561567041609
 30
0.0
 42
-0.1253399643029709
  0
VERTEX
  5
E9
  8
SignTorch_-_COON021_
 10
13.75357842047731
 20
-1.267428388895318
 30
0.0
 42
-0.5551904139789325
  0
VERTEX
  5
EA
  8
SignTorch_-_COON021_
 10
13.70286465454102
 20
-1.269561567041609
 30
0.0
 42
-0.0696428969420462
  0
VERTEX
  5
EB
  8
SignTorch_-_COON021_
 10
13.67731532643779
 20
-1.218010946356145
 30
0.0
 42
0.1438815323990324
  0
VERTEX
  5
EC
  8
SignTorch_-_COON021_
 10
13.54634902954102
 20
-1.029374067041609
 30
0.0
 42
0.0736484871843162
  0
VERTEX
  5
ED
  8
SignTorch_-_COON021_
 10
13.38590513006192
 20
-0.9351325491237137
 30
0.0
 42
0.1997881453493478
  0
VERTEX
  5
EE
  8
SignTorch_-_COON021_
 10
13.22578262329102
 20
-0.936786176416609
 30
0.0
 42
-0.004158188654226
  0
VERTEX
  5
EF
  8
SignTorch_-_COON021_
 10
13.09171159322343
 20
-0.9929015237069009
 30
0.0
 42
-0.3119199270091629
  0
VERTEX
  5
F0
  8
SignTorch_-_COON021_
 10
12.96592715454102
 20
-0.9652178170416088
 30
0.0
 42
-0.0917568445342417
  0
VERTEX
  5
F1
  8
SignTorch_-_COON021_
 10
12.89740097656029
 20
-0.8574668727534233
 30
0.0
 42
0.1355157653291337
  0
VERTEX
  5
F2
  8
SignTorch_-_COON021_
 10
12.81983340454102
 20
-0.756030317041609
 30
0.0
 42
0.1317762207652744
  0
VERTEX
  5
F3
  8
SignTorch_-_COON021_
 10
12.69321589241396
 20
-0.704496979583973
 30
0.0
 42
0.1804826069777869
  0
VERTEX
  5
F4
  8
SignTorch_-_COON021_
 10
12.40504434204102
 20
-0.772772504541609
 30
0.0
 42
0.0547205958290784
  0
VERTEX
  5
F5
  8
SignTorch_-_COON021_
 10
12.27887079663807
 20
-0.8788508654481608
 30
0.0
 42
-0.1677981435988556
  0
VERTEX
  5
F6
  8
SignTorch_-_COON021_
 10
12.13234902954102
 20
-0.954374067041609
 30
0.0
 42
-0.1368854545796438
  0
VERTEX
  5
F7
  8
SignTorch_-_COON021_
 10
12.0855502813836
 20
-0.9483197146024851
 30
0.0
 42
-0.202241518375665
  0
VERTEX
  5
F8
  8
SignTorch_-_COON021_
 10
12.06280996704102
 20
-0.9249131295416089
 30
0.0
 42
-0.0375861032655573
  0
VERTEX
  5
F9
  8
SignTorch_-_COON021_
 10
12.04626665468823
 20
-0.870805963359794
 30
0.0
 42
0.1188992515613969
  0
VERTEX
  5
FA
  8
SignTorch_-_COON021_
 10
11.99984121704101
 20
-0.776694379541609
 30
0.0
 42
0.2779259923710763
  0
VERTEX
  5
FB
  8
SignTorch_-_COON021_
 10
11.76461753410342
 20
-0.6951599105203696
 30
0.0
 42
0.1407942335114739
  0
VERTEX
  5
FC
  8
SignTorch_-_COON021_
 10
11.55483535766601
 20
-0.8065850045416091
 30
0.0
 42
0.0329054897371652
  0
VERTEX
  5
FD
  8
SignTorch_-_COON021_
 10
11.45199616209544
 20
-0.9198921355072843
 30
0.0
 42
-0.2869444970014092
  0
VERTEX
  5
FE
  8
SignTorch_-_COON021_
 10
11.41504824829101
 20
-0.9329912545416089
 30
0.0
 42
-0.2894687983466284
  0
VERTEX
  5
FF
  8
SignTorch_-_COON021_
 10
11.3846301892763
 20
-0.902797114944764
 30
0.0
 42
0.0989506523934005
  0
VERTEX
  5
100
  8
SignTorch_-_COON021_
 10
11.31522402954102
 20
-0.748545942041609
 30
0.0
 42
0.3139956033545899
  0
VERTEX
  5
101
  8
SignTorch_-_COON021_
 10
11.18434538894505
 20
-0.7019212031503504
 30
0.0
 42
0.0623100996469291
  0
VERTEX
  5
102
  8
SignTorch_-_COON021_
 10
10.98447402954102
 20
-0.7842490670416089
 30
0.0
 42
0.0289197701970852
  0
VERTEX
  5
103
  8
SignTorch_-_COON021_
 10
10.76346028412313
 20
-0.9268520186249325
 30
0.0
 42
0.079416148805706
  0
VERTEX
  5
104
  8
SignTorch_-_COON021_
 10
10.69563027954102
 20
-0.9952178170416089
 30
0.0
 42
-0.0273142406482152
  0
VERTEX
  5
105
  8
SignTorch_-_COON021_
 10
10.62720967289716
 20
-1.080247664619883
 30
0.0
 42
-0.6099575842390882
  0
VERTEX
  5
106
  8
SignTorch_-_COON021_
 10
10.57853848266602
 20
-1.067465863916609
 30
0.0
 42
-0.1519490351102984
  0
VERTEX
  5
107
  8
SignTorch_-_COON021_
 10
10.58402904963831
 20
-1.001489740814242
 30
0.0
 42
-0.1135368507131088
  0
VERTEX
  5
108
  8
SignTorch_-_COON021_
 10
10.70747402954102
 20
-0.825139692041609
 30
0.0
 42
-0.0797712304037335
  0
VERTEX
  5
109
  8
SignTorch_-_COON021_
 10
10.89815922140463
 20
-0.7016320504939577
 30
0.0
 42
0.0608923887448697
  0
VERTEX
  5
10A
  8
SignTorch_-_COON021_
 10
11.09334902954102
 20
-0.585374067041609
 30
0.0
 42
-0.0475418593951398
  0
VERTEX
  5
10B
  8
SignTorch_-_COON021_
 10
11.18921929613496
 20
-0.5247579959774625
 30
0.0
 42
-0.0650120770411638
  0
VERTEX
  5
10C
  8
SignTorch_-_COON021_
 10
11.26759902954102
 20
-0.4971240670416089
 30
0.0
 42
-0.0195130738311122
  0
VERTEX
  5
10D
  8
SignTorch_-_COON021_
 10
11.42213395101094
 20
-0.4705819491871214
 30
0.0
 42
0.0850186862122442
  0
VERTEX
  5
10E
  8
SignTorch_-_COON021_
 10
11.57189590454102
 20
-0.4241396920416091
 30
0.0
 42
0.0315126363102954
  0
VERTEX
  5
10F
  8
SignTorch_-_COON021_
 10
11.71239319334908
 20
-0.3411888508512173
 30
0.0
 42
0.0237652484118009
  0
VERTEX
  5
110
  8
SignTorch_-_COON021_
 10
11.88534902954102
 20
-0.2113740670416091
 30
0.0
 42
0.1391705348690858
  0
VERTEX
  5
111
  8
SignTorch_-_COON021_
 10
11.91894003639003
 20
-0.162572927046424
 30
0.0
 42
0.1949516626084415
  0
VERTEX
  5
112
  8
SignTorch_-_COON021_
 10
11.91640957641602
 20
-0.1195810982916091
 30
0.0
 42
0.080350213889107
  0
VERTEX
  5
113
  8
SignTorch_-_COON021_
 10
11.87838141809587
 20
-0.0644958328716071
 30
0.0
 42
-0.3437424995032705
  0
VERTEX
  5
114
  8
SignTorch_-_COON021_
 10
11.87153921508789
 20
0.0020902884271408
 30
0.0
 42
-0.2329257557612045
  0
VERTEX
  5
115
  8
SignTorch_-_COON021_
 10
11.95208319184945
 20
0.0518414135731658
 30
0.0
 42
0.0685811128067632
  0
VERTEX
  5
116
  8
SignTorch_-_COON021_
 10
12.12228652954101
 20
0.0921571829583911
 30
0.0
 42
0.0979188020287974
  0
VERTEX
  5
117
  8
SignTorch_-_COON021_
 10
12.25951360694406
 20
0.1791013904016726
 30
0.0
 42
0.3360721586634356
  0
VERTEX
  5
118
  8
SignTorch_-_COON021_
 10
12.26795059204101
 20
0.230592729833391
 30
0.0
 42
0.1503594246094855
  0
VERTEX
  5
119
  8
SignTorch_-_COON021_
 10
12.23032084640664
 20
0.268290094432823
 30
0.0
 42
-0.0796624115822612
  0
VERTEX
  5
11A
  8
SignTorch_-_COON021_
 10
12.15145840454102
 20
0.327844682958391
 30
0.0
 42
-0.3568132632244452
  0
VERTEX
  5
11B
  8
SignTorch_-_COON021_
 10
12.14386020307121
 20
0.4231674860410026
 30
0.0
 42
0.2853111255993346
  0
VERTEX
  5
11C
  8
SignTorch_-_COON021_
 10
12.14864590454101
 20
0.518672807958391
 30
0.0
 42
0.0766267255205309
  0
VERTEX
  5
11D
  8
SignTorch_-_COON021_
 10
12.06893384528014
 20
0.6216480655871712
 30
0.0
 42
-0.2697305574914057
  0
VERTEX
  5
11E
  8
SignTorch_-_COON021_
 10
12.03234902954101
 20
0.746625932958391
 30
0.0
 42
-0.182745677337587
  0
VERTEX
  5
11F
  8
SignTorch_-_COON021_
 10
12.1050732478641
 20
0.8520985605262181
 30
0.0
 42
-0.0250288728450916
  0
VERTEX
  5
120
  8
SignTorch_-_COON021_
 10
12.30484902954102
 20
0.9761259329583909
 30
0.0
 42
0.0288686114819136
  0
VERTEX
  5
121
  8
SignTorch_-_COON021_
 10
12.4716797559517
 20
1.081482147246802
 30
0.0
 42
0.1241732316983896
  0
VERTEX
  5
122
  8
SignTorch_-_COON021_
 10
12.50175918579102
 20
1.116997026708391
 30
0.0
 42
0.3022189441565106
  0
VERTEX
  5
123
  8
SignTorch_-_COON021_
 10
12.49244496620942
 20
1.187504611566303
 30
0.0
 42
0.0361279324801317
  0
VERTEX
  5
124
  8
SignTorch_-_COON021_
 10
12.39734902954102
 20
1.281625932958391
 30
0.0
 42
0.0064386690905384
  0
VERTEX
  5
125
  8
SignTorch_-_COON021_
 10
12.23622074272254
 20
1.416010812529659
 30
0.0
 42
-0.2560175938664848
  0
VERTEX
  5
126
  8
SignTorch_-_COON021_
 10
12.21593081665039
 20
1.46575874545839
 30
0.0
 42
-0.2251916240378315
  0
VERTEX
  5
127
  8
SignTorch_-_COON021_
 10
12.24661136792085
 20
1.515022445955049
 30
0.0
 42
-0.0075281531438297
  0
VERTEX
  5
128
  8
SignTorch_-_COON021_
 10
12.36834902954102
 20
1.590625932958391
 30
0.0
 42
0.0575789356071967
  0
VERTEX
  5
129
  8
SignTorch_-_COON021_
 10
12.51252287541903
 20
1.701534176540701
 30
0.0
 42
0.3840985326546351
  0
VERTEX
  5
12A
  8
SignTorch_-_COON021_
 10
12.51959902954102
 20
1.807625932958391
 30
0.0
 42
0.0812274830489708
  0
VERTEX
  5
12B
  8
SignTorch_-_COON021_
 10
12.45500482120951
 20
1.866825731008298
 30
0.0
 42
-0.3413319082370546
  0
VERTEX
  5
12C
  8
SignTorch_-_COON021_
 10
12.42634902954102
 20
1.949625932958391
 30
0.0
 42
-0.1887357997386994
  0
VERTEX
  5
12D
  8
SignTorch_-_COON021_
 10
12.48536282904315
 20
2.020008198052385
 30
0.0
 42
0.1555152202481836
  0
VERTEX
  5
12E
  8
SignTorch_-_COON021_
 10
12.73897402954102
 20
2.285620073583391
 30
0.0
 42
0.032060370189722
  0
VERTEX
  5
12F
  8
SignTorch_-_COON021_
 10
12.82066827274735
 20
2.484571169761649
 30
0.0
 42
-0.0456325408104051
  0
VERTEX
  5
130
  8
SignTorch_-_COON021_
 10
12.90772402954101
 20
2.681235307958391
 30
0.0
 42
-0.0372530973124276
  0
VERTEX
  5
131
  8
SignTorch_-_COON021_
 10
12.94118423960852
 20
2.732039106394337
 30
0.0
 42
-0.4139211389651761
  0
VERTEX
  5
132
  8
SignTorch_-_COON021_
 10
13.00339590454102
 20
2.740110307958391
 30
0.0
 42
-0.0886349747894798
  0
VERTEX
  5
133
  8
SignTorch_-_COON021_
 10
13.05824721843499
 20
2.679809193863323
 30
0.0
 42
-0.0827370004867514
  0
VERTEX
  5
134
  8
SignTorch_-_COON021_
 10
13.14694277954102
 20
2.467782182958391
 30
0.0
 42
-0.0697470632536958
  0
VERTEX
  5
135
  8
SignTorch_-_COON021_
 10
13.17133570408033
 20
2.202910101315992
 30
0.0
 42
-0.0665135126155458
  0
VERTEX
  5
136
  8
SignTorch_-_COON021_
 10
13.12134902954102
 20
1.928625932958391
 30
0.0
 42
0.0095552408066817
  0
VERTEX
  5
137
  8
SignTorch_-_COON021_
 10
13.08179833270595
 20
1.797992232018592
 30
0.0
 42
0.1899883903786503
  0
VERTEX
  5
138
  8
SignTorch_-_COON021_
 10
13.09485488891602
 20
1.668674761083391
 30
0.0
 42
0.0669729106585764
  0
VERTEX
  5
139
  8
SignTorch_-_COON021_
 10
13.17124488940015
 20
1.559347515343904
 30
0.0
 42
-0.0627477438707801
  0
VERTEX
  5
13A
  8
SignTorch_-_COON021_
 10
13.24855215454102
 20
1.450666948583391
 30
0.0
 42
-0.1261100571048537
  0
VERTEX
  5
13B
  8
SignTorch_-_COON021_
 10
13.27044279378279
 20
1.36200533527563
 30
0.0
 42
-0.1824125486909845
  0
VERTEX
  5
13C
  8
SignTorch_-_COON021_
 10
13.24723965454102
 20
1.302127886083391
 30
0.0
 42
-0.0256494336363895
  0
VERTEX
  5
13D
  8
SignTorch_-_COON021_
 10
13.18538769764602
 20
1.239834022191004
 30
0.0
 42
0.4425306621418472
  0
VERTEX
  5
13E
  8
SignTorch_-_COON021_
 10
13.18539590454102
 20
1.173625932958391
 30
0.0
 42
0.110613801737396
  0
VERTEX
  5
13F
  8
SignTorch_-_COON021_
 10
13.29853982513089
 20
1.109280458055802
 30
0.0
 42
-0.163836462318458
  0
VERTEX
  5
140
  8
SignTorch_-_COON021_
 10
13.35554995727539
 20
1.068447222020891
 30
0.0
 42
-0.3893257241629602
  0
VERTEX
  5
141
  8
SignTorch_-_COON021_
 10
13.34792899339625
 20
1.004205825502722
 30
0.0
 42
-0.0278914052829582
  0
VERTEX
  5
142
  8
SignTorch_-_COON021_
 10
13.23947402954101
 20
0.9210009329583908
 30
0.0
 42
-0.0340217709548393
  0
VERTEX
  5
143
  8
SignTorch_-_COON021_
 10
13.07029809725225
 20
0.8217363163866568
 30
0.0
 42
0.0342152500549613
  0
VERTEX
  5
144
  8
SignTorch_-_COON021_
 10
12.97922402954102
 20
0.7682509329583909
 30
0.0
 42
0.130569318752889
  0
VERTEX
  5
145
  8
SignTorch_-_COON021_
 10
12.95412657367885
 20
0.7391528646959894
 30
0.0
 42
0.2286336212300187
  0
VERTEX
  5
146
  8
SignTorch_-_COON021_
 10
12.95406973266602
 20
0.7164481985833907
 30
0.0
 42
0.134038954989446
  0
VERTEX
  5
147
  8
SignTorch_-_COON021_
 10
12.96685167314844
 20
0.7016829845427478
 30
0.0
 42
0.0211076475251234
  0
VERTEX
  5
148
  8
SignTorch_-_COON021_
 10
13.07084902954102
 20
0.6381259329583912
 30
0.0
 42
0.0098658462870569
  0
VERTEX
  5
149
  8
SignTorch_-_COON021_
 10
13.17038387266686
 20
0.5854651789259088
 30
0.0
 42
-0.0057477778661519
  0
SEQEND
  5
14A
  8
SignTorch_-_COON021_
  0
POLYLINE
  5
44
  8
SignTorch_-_COON021_
 66
     1
 10
0.0
 20
0.0
 30
0.0
 70
     1
  0
VERTEX
  5
14B
  8
SignTorch_-_COON021_
 10
10.35522402954102
 20
8.946125932958392
 30
0.0
 42
-0.056989096994871
  0
VERTEX
  5
14C
  8
SignTorch_-_COON021_
 10
10.46867550802019
 20
9.139913775324404
 30
0.0
 42
-0.227270221080989
  0
VERTEX
  5
14D
  8
SignTorch_-_COON021_
 10
10.52102090454101
 20
9.16718843295839
 30
0.0
 42
-0.1406674183398007
  0
VERTEX
  5
14E
  8
SignTorch_-_COON021_
 10
10.56260930101484
 20
9.156741655981714
 30
0.0
 42
0.2699215470787568
  0
VERTEX
  5
14F
  8
SignTorch_-_COON021_
 10
10.60548965454102
 20
9.15681343295839
 30
0.0
 42
0.1315850083670783
  0
VERTEX
  5
150
  8
SignTorch_-_COON021_
 10
10.64257325673308
 20
9.194286212101401
 30
0.0
 42
-0.0452623119300527
  0
VERTEX
  5
151
  8
SignTorch_-_COON021_
 10
10.76284902954102
 20
9.36675093295839
 30
0.0
 42
-0.036853720025398
  0
VERTEX
  5
152
  8
SignTorch_-_COON021_
 10
11.00610232568488
 20
9.616056457050153
 30
0.0
 42
-0.0568906832791208
  0
VERTEX
  5
153
  8
SignTorch_-_COON021_
 10
11.19134902954102
 20
9.745625932958392
 30
0.0
 42
-0.0279958625517323
  0
VERTEX
  5
154
  8
SignTorch_-_COON021_
 10
11.62261806178442
 20
9.949036328985652
 30
0.0
 42
-0.0728910644955241
  0
VERTEX
  5
155
  8
SignTorch_-_COON021_
 10
11.80134902954102
 20
9.99262593295839
 30
0.0
 42
-0.1435204307924879
  0
VERTEX
  5
156
  8
SignTorch_-_COON021_
 10
11.84126123047991
 20
9.984891870783777
 30
0.0
 42
-0.534583693732794
  0
VERTEX
  5
157
  8
SignTorch_-_COON021_
 10
11.84480215454102
 20
9.95353218295839
 30
0.0
 42
-0.1273441724253429
  0
VERTEX
  5
158
  8
SignTorch_-_COON021_
 10
11.81105172788901
 20
9.937310049160187
 30
0.0
 42
0.0271304673696727
  0
VERTEX
  5
159
  8
SignTorch_-_COON021_
 10
11.66645840454102
 20
9.90054780795839
 30
0.0
 42
0.0300088028954812
  0
VERTEX
  5
15A
  8
SignTorch_-_COON021_
 10
11.42569624112868
 20
9.809038652509178
 30
0.0
 42
0.0273859510087624
  0
VERTEX
  5
15B
  8
SignTorch_-_COON021_
 10
11.17513027954102
 20
9.67923530795839
 30
0.0
 42
0.0657790486419355
  0
VERTEX
  5
15C
  8
SignTorch_-_COON021_
 10
11.04669466437148
 20
9.578708753721074
 30
0.0
 42
0.0089332834995025
  0
VERTEX
  5
15D
  8
SignTorch_-_COON021_
 10
10.83822402954102
 20
9.358250932958391
 30
0.0
 42
0.0494724764176862
  0
VERTEX
  5
15E
  8
SignTorch_-_COON021_
 10
10.67071075053266
 20
9.13360481700801
 30
0.0
 42
-0.1079679752603911
  0
VERTEX
  5
15F
  8
SignTorch_-_COON021_
 10
10.62253652954102
 20
9.08261030795839
 30
0.0
 42
-0.1391507799905099
  0
VERTEX
  5
160
  8
SignTorch_-_COON021_
 10
10.59028007288784
 20
9.071842002674678
 30
0.0
 42
-0.1236531046045937
  0
VERTEX
  5
161
  8
SignTorch_-_COON021_
 10
10.55292715454102
 20
9.079428667333392
 30
0.0
 42
0.1017114801794467
  0
VERTEX
  5
162
  8
SignTorch_-_COON021_
 10
10.51849527292603
 20
9.087990361480966
 30
0.0
 42
0.1829553244880777
  0
VERTEX
  5
163
  8
SignTorch_-_COON021_
 10
10.49934902954102
 20
9.08162593295839
 30
0.0
 42
0.0968966093264268
  0
VERTEX
  5
164
  8
SignTorch_-_COON021_
 10
10.47378490552964
 20
9.050951437976305
 30
0.0
 42
0.0219545361319571
  0
VERTEX
  5
165
  8
SignTorch_-_COON021_
 10
10.39659902954102
 20
8.894250932958391
 30
0.0
 42
0.0204626458971798
  0
VERTEX
  5
166
  8
SignTorch_-_COON021_
 10
10.32289009227573
 20
8.705814888709895
 30
0.0
 42
0.0510193791535808
  0
VERTEX
  5
167
  8
SignTorch_-_COON021_
 10
10.30434902954102
 20
8.62662593295839
 30
0.0
 42
-0.1789426153129681
  0
VERTEX
  5
168
  8
SignTorch_-_COON021_
 10
10.27184553273614
 20
8.564523557556004
 30
0.0
 42
-0.6509987921619381
  0
VERTEX
  5
169
  8
SignTorch_-_COON021_
 10
10.22006777954102
 20
8.587625932958389
 30
0.0
 42
-0.0896122060969996
  0
VERTEX
  5
16A
  8
SignTorch_-_COON021_
 10
10.22940628378048
 20
8.638431321744523
 30
0.0
 42
-0.0138168312385409
  0
SEQEND
  5
16B
  8
SignTorch_-_COON021_
  0
POLYLINE
  5
45
  8
SignTorch_-_COON021_
 66
     1
 10
0.0
 20
0.0
 30
0.0
 70
     1
  0
VERTEX
  5
16C
  8
SignTorch_-_COON021_
 10
10.38034902954102
 20
5.708750932958391
 30
0.0
 42
-0.0360583955988041
  0
VERTEX
  5
16D
  8
SignTorch_-_COON021_
 10
10.62842354848292
 20
5.658140379723894
 30
0.0
 42
-0.163617943672811
  0
VERTEX
  5
16E
  8
SignTorch_-_COON021_
 10
10.76597402954102
 20
5.56450093295839
 30
0.0
 42
0.0285843205081782
  0
VERTEX
  5
16F
  8
SignTorch_-_COON021_
 10
10.83750513693499
 20
5.480584111797086
 30
0.0
 42
0.0967271608775158
  0
VERTEX
  5
170
  8
SignTorch_-_COON021_
 10
10.86434902954102
 20
5.461625932958391
 30
0.0
 42
0.0613967024688648
  0
VERTEX
  5
171
  8
SignTorch_-_COON021_
 10
10.94520371689643
 20
5.436667215708237
 30
0.0
 42
-0.0388133656541676
  0
VERTEX
  5
172
  8
SignTorch_-_COON021_
 10
11.27272402954102
 20
5.351516557958391
 30
0.0
 42
-0.0453235694194417
  0
VERTEX
  5
173
  8
SignTorch_-_COON021_
 10
11.36920399965394
 20
5.308138405978083
 30
0.0
 42
-0.0575300519799321
  0
VERTEX
  5
174
  8
SignTorch_-_COON021_
 10
11.43672402954101
 20
5.25911030795839
 30
0.0
 42
0.0142495615558749
  0
VERTEX
  5
175
  8
SignTorch_-_COON021_
 10
11.52079628053928
 20
5.186189982313658
 30
0.0
 42
0.0193000929162404
  0
VERTEX
  5
176
  8
SignTorch_-_COON021_
 10
11.58634902954102
 20
5.136625932958391
 30
0.0
 42
-0.0851245901880784
  0
VERTEX
  5
177
  8
SignTorch_-_COON021_
 10
11.73541170098016
 20
4.989566221006748
 30
0.0
 42
-0.0274759301184137
  0
VERTEX
  5
178
  8
SignTorch_-_COON021_
 10
11.81272402954102
 20
4.868250932958389
 30
0.0
 42
0.0287627310162248
  0
VERTEX
  5
179
  8
SignTorch_-_COON021_
 10
11.88243275464934
 20
4.759485056871321
 30
0.0
 42
0.1397648002950926
  0
VERTEX
  5
17A
  8
SignTorch_-_COON021_
 10
12.00834902954102
 20
4.66062593295839
 30
0.0
 42
0.0151764793327074
  0
VERTEX
  5
17B
  8
SignTorch_-_COON021_
 10
12.07467753672798
 20
4.635847375028288
 30
0.0
 42
-0.0394946366772786
  0
VERTEX
  5
17C
  8
SignTorch_-_COON021_
 10
12.13972402954102
 20
4.60787593295839
 30
0.0
 42
-0.0228480161674723
  0
VERTEX
  5
17D
  8
SignTorch_-_COON021_
 10
12.23872375279417
 20
4.549770101601463
 30
0.0
 42
0.0314561940998243
  0
VERTEX
  5
17E
  8
SignTorch_-_COON021_
 10
12.33870840454102
 20
4.49337593295839
 30
0.0
 42
-0.0373584454876806
  0
VERTEX
  5
17F
  8
SignTorch_-_COON021_
 10
12.41958744996825
 20
4.446492418387869
 30
0.0
 42
-0.1364082352715831
  0
VERTEX
  5
180
  8
SignTorch_-_COON021_
 10
12.46340567016601
 20
4.394430620458391
 30
0.0
 42
-0.0211967604927861
  0
VERTEX
  5
181
  8
SignTorch_-_COON021_
 10
12.4936347385044
 20
4.320067140614872
 30
0.0
 42
0.0494863901839131
  0
VERTEX
  5
182
  8
SignTorch_-_COON021_
 10
12.55747402954102
 20
4.185375932958391
 30
0.0
 42
-0.013103073696563
  0
VERTEX
  5
183
  8
SignTorch_-_COON021_
 10
12.66983914963053
 20
3.986966256901977
 30
0.0
 42
-0.5474809045841644
  0
VERTEX
  5
184
  8
SignTorch_-_COON021_
 10
12.62281777954102
 20
3.903438432958391
 30
0.0
 42
-0.0815680592095888
  0
VERTEX
  5
185
  8
SignTorch_-_COON021_
 10
12.56095163266782
 20
3.910053406448312
 30
0.0
 42
0.0379757044380561
  0
VERTEX
  5
186
  8
SignTorch_-_COON021_
 10
12.44759902954102
 20
3.932250932958391
 30
0.0
 42
-0.031737636471295
  0
VERTEX
  5
187
  8
SignTorch_-_COON021_
 10
12.27602436882674
 20
3.96363524113517
 30
0.0
 42
0.0760692185729959
  0
VERTEX
  5
188
  8
SignTorch_-_COON021_
 10
12.10234902954102
 20
3.979750932958391
 30
0.0
 42
0.0221585683273106
  0
VERTEX
  5
189
  8
SignTorch_-_COON021_
 10
11.99642296991613
 20
3.968734480646362
 30
0.0
 42
0.0070313694173711
  0
VERTEX
  5
18A
  8
SignTorch_-_COON021_
 10
11.66534902954102
 20
3.914625932958391
 30
0.0
 42
0.0263589148564081
  0
VERTEX
  5
18B
  8
SignTorch_-_COON021_
 10
11.46540411836084
 20
3.868069644553811
 30
0.0
 42
-0.2936141843621382
  0
VERTEX
  5
18C
  8
SignTorch_-_COON021_
 10
11.32934902954102
 20
3.90862593295839
 30
0.0
 42
-0.3290967259338795
  0
VERTEX
  5
18D
  8
SignTorch_-_COON021_
 10
11.31830772805729
 20
4.057451833192217
 30
0.0
 42
0.2078669815854141
  0
VERTEX
  5
18E
  8
SignTorch_-_COON021_
 10
11.33049942016602
 20
4.137086870458391
 30
0.0
 42
0.2912223860105744
  0
VERTEX
  5
18F
  8
SignTorch_-_COON021_
 10
11.30337452552248
 20
4.162156695485063
 30
0.0
 42
0.0430959955584333
  0
VERTEX
  5
190
  8
SignTorch_-_COON021_
 10
11.07386465454102
 20
4.183594682958391
 30
0.0
 42
0.0349402355558865
  0
VERTEX
  5
191
  8
SignTorch_-_COON021_
 10
10.94049232581266
 20
4.175200735589072
 30
0.0
 42
-0.3474206797590033
  0
VERTEX
  5
192
  8
SignTorch_-_COON021_
 10
10.86336660766602
 20
4.221018511083391
 30
0.0
 42
-0.1288819517891474
  0
VERTEX
  5
193
  8
SignTorch_-_COON021_
 10
10.85816802118028
 20
4.268238920537817
 30
0.0
 42
-0.0433598088684241
  0
VERTEX
  5
194
  8
SignTorch_-_COON021_
 10
10.89034902954102
 20
4.403625932958391
 30
0.0
 42
0.0939432098867735
  0
VERTEX
  5
195
  8
SignTorch_-_COON021_
 10
10.89667055662076
 20
4.450985718433378
 30
0.0
 42
0.3138632732077165
  0
VERTEX
  5
196
  8
SignTorch_-_COON021_
 10
10.87372402954102
 20
4.480375932958391
 30
0.0
 42
0.0373102219965598
  0
VERTEX
  5
197
  8
SignTorch_-_COON021_
 10
10.80900148708424
 20
4.495193608756078
 30
0.0
 42
-0.146951015951309
  0
VERTEX
  5
198
  8
SignTorch_-_COON021_
 10
10.74899356079102
 20
4.523612261083391
 30
0.0
 42
-0.1045076873187394
  0
VERTEX
  5
199
  8
SignTorch_-_COON021_
 10
10.71475796410469
 20
4.570722172201477
 30
0.0
 42
0.2497445943004698
  0
VERTEX
  5
19A
  8
SignTorch_-_COON021_
 10
10.53234902954101
 20
4.712625932958391
 30
0.0
 42
0.0869235660151747
  0
VERTEX
  5
19B
  8
SignTorch_-_COON021_
 10
10.30749896027446
 20
4.712234319408955
 30
0.0
 42
-0.0771257010784516
  0
VERTEX
  5
19C
  8
SignTorch_-_COON021_
 10
10.18645059204102
 20
4.70966694858339
 30
0.0
 42
-0.1432891528207807
  0
VERTEX
  5
19D
  8
SignTorch_-_COON021_
 10
10.12828107792305
 20
4.735461352609881
 30
0.0
 42
-0.0873827459128236
  0
VERTEX
  5
19E
  8
SignTorch_-_COON021_
 10
10.06234902954101
 20
4.81462593295839
 30
0.0
 42
0.0139698998235009
  0
VERTEX
  5
19F
  8
SignTorch_-_COON021_
 10
10.01537793251739
 20
4.891571133075059
 30
0.0
 42
0.1794978549369415
  0
VERTEX
  5
1A0
  8
SignTorch_-_COON021_
 10
9.942817779541016
 20
4.945547807958391
 30
0.0
 42
0.0260890798397842
  0
VERTEX
  5
1A1
  8
SignTorch_-_COON021_
 10
9.872186070127391
 20
4.962249674099856
 30
0.0
 42
-0.0522033516629717
  0
VERTEX
  5
1A2
  8
SignTorch_-_COON021_
 10
9.802520904541016
 20
4.982610307958391
 30
0.0
 42
-0.0475326928483987
  0
VERTEX
  5
1A3
  8
SignTorch_-_COON021_
 10
9.702387903474547
 20
5.035206143580468
 30
0.0
 42
0.1273612378970343
  0
VERTEX
  5
1A4
  8
SignTorch_-_COON021_
 10
9.503599029541016
 20
5.102250932958391
 30
0.0
 42
0.1664884580338723
  0
VERTEX
  5
1A5
  8
SignTorch_-_COON021_
 10
9.317290692902276
 20
5.053083099026872
 30
0.0
 42
0.0367380571231937
  0
VERTEX
  5
1A6
  8
SignTorch_-_COON021_
 10
9.197224029541015
 20
4.95962593295839
 30
0.0
 42
-0.0292315531034124
  0
VERTEX
  5
1A7
  8
SignTorch_-_COON021_
 10
9.116990570589309
 20
4.895218825765411
 30
0.0
 42
-0.2433139631514011
  0
VERTEX
  5
1A8
  8
SignTorch_-_COON021_
 10
9.063349029541016
 20
4.887625932958391
 30
0.0
 42
-0.2012934793125972
  0
VERTEX
  5
1A9
  8
SignTorch_-_COON021_
 10
8.94374110829076
 20
4.995533229002543
 30
0.0
 42
-0.0474469099808948
  0
VERTEX
  5
1AA
  8
SignTorch_-_COON021_
 10
8.863833404541015
 20
5.218110307958391
 30
0.0
 42
0.0586905097067138
  0
VERTEX
  5
1AB
  8
SignTorch_-_COON021_
 10
8.829956515951592
 20
5.306208600352942
 30
0.0
 42
0.3350069670345335
  0
VERTEX
  5
1AC
  8
SignTorch_-_COON021_
 10
8.813373199462891
 20
5.314014360692766
 30
0.0
 42
0.2587958536667994
  0
VERTEX
  5
1AD
  8
SignTorch_-_COON021_
 10
8.786707535841396
 20
5.290952295159019
 30
0.0
 42
0.0605129622119579
  0
VERTEX
  5
1AE
  8
SignTorch_-_COON021_
 10
8.720724029541016
 20
5.009625932958391
 30
0.0
 42
-0.0020792272659675
  0
VERTEX
  5
1AF
  8
SignTorch_-_COON021_
 10
8.687630503935557
 20
4.71971843130673
 30
0.0
 42
-0.1482030976655814
  0
VERTEX
  5
1B0
  8
SignTorch_-_COON021_
 10
8.658151763916017
 20
4.652278276708391
 30
0.0
 42
-0.3890997253263818
  0
VERTEX
  5
1B1
  8
SignTorch_-_COON021_
 10
8.568583509214077
 20
4.641269088060092
 30
0.0
 42
0.2270649159139654
  0
VERTEX
  5
1B2
  8
SignTorch_-_COON021_
 10
8.479692779541015
 20
4.65682905795839
 30
0.0
 42
0.1640183194165301
  0
VERTEX
  5
1B3
  8
SignTorch_-_COON021_
 10
8.426820075749347
 20
4.620780233901247
 30
0.0
 42
0.0010618971687138
  0
VERTEX
  5
1B4
  8
SignTorch_-_COON021_
 10
8.321349029541015
 20
4.48062593295839
 30
0.0
 42
-0.0926278900803953
  0
VERTEX
  5
1B5
  8
SignTorch_-_COON021_
 10
8.176652647689494
 20
4.347688368866186
 30
0.0
 42
-0.3654602823816069
  0
VERTEX
  5
1B6
  8
SignTorch_-_COON021_
 10
8.035493560791016
 20
4.367929399755266
 30
0.0
 42
-0.0928793261837626
  0
VERTEX
  5
1B7
  8
SignTorch_-_COON021_
 10
7.977598445036309
 20
4.4639924870209
 30
0.0
 42
-0.0332313305735958
  0
VERTEX
  5
1B8
  8
SignTorch_-_COON021_
 10
7.888411529541016
 20
4.762079057958391
 30
0.0
 42
-0.0059570192232837
  0
VERTEX
  5
1B9
  8
SignTorch_-_COON021_
 10
7.789423313149689
 20
5.221165308359162
 30
0.0
 42
-0.1053704705158878
  0
VERTEX
  5
1BA
  8
SignTorch_-_COON021_
 10
7.791349029541016
 20
5.423625932958391
 30
0.0
 42
-0.0331975016687473
  0
VERTEX
  5
1BB
  8
SignTorch_-_COON021_
 10
7.823595358236711
 20
5.533345883907107
 30
0.0
 42
0.0073102668375635
  0
VERTEX
  5
1BC
  8
SignTorch_-_COON021_
 10
7.861474029541016
 20
5.641250932958391
 30
0.0
 42
-0.0212890134109589
  0
VERTEX
  5
1BD
  8
SignTorch_-_COON021_
 10
7.987750302492093
 20
5.971167459791885
 30
0.0
 42
-0.0646616706641476
  0
VERTEX
  5
1BE
  8
SignTorch_-_COON021_
 10
8.132270904541016
 20
6.21376655795839
 30
0.0
 42
-0.0533455226481755
  0
VERTEX
  5
1BF
  8
SignTorch_-_COON021_
 10
8.17960215094591
 20
6.262286391876274
 30
0.0
 42
-0.4075279441859768
  0
VERTEX
  5
1C0
  8
SignTorch_-_COON021_
 10
8.254255279541015
 20
6.25609468295839
 30
0.0
 42
-0.1108923720791036
  0
VERTEX
  5
1C1
  8
SignTorch_-_COON021_
 10
8.298442809087145
 20
6.173887274609719
 30
0.0
 42
0.1576117818512794
  0
VERTEX
  5
1C2
  8
SignTorch_-_COON021_
 10
8.349977935791017
 20
6.096075151708391
 30
0.0
 42
0.2901126312432427
  0
VERTEX
  5
1C3
  8
SignTorch_-_COON021_
 10
8.4008564409272
 20
6.090535783525654
 30
0.0
 42
-0.001612411599062
  0
VERTEX
  5
1C4
  8
SignTorch_-_COON021_
 10
8.530765045166016
 20
6.15377827670839
 30
0.0
 42
-0.0958886078041517
  0
VERTEX
  5
1C5
  8
SignTorch_-_COON021_
 10
8.63894034076701
 20
6.182396957770051
 30
0.0
 42
0.0466480876561638
  0
VERTEX
  5
1C6
  8
SignTorch_-_COON021_
 10
8.843974029541016
 20
6.215625932958391
 30
0.0
 42
-0.0366486862842668
  0
VERTEX
  5
1C7
  8
SignTorch_-_COON021_
 10
8.984505041202949
 20
6.241290204349438
 30
0.0
 42
-0.3322211449608792
  0
VERTEX
  5
1C8
  8
SignTorch_-_COON021_
 10
9.115599029541015
 20
6.163750932958392
 30
0.0
 42
0.1085786248976582
  0
VERTEX
  5
1C9
  8
SignTorch_-_COON021_
 10
9.138188164697457
 20
6.131532312289559
 30
0.0
 42
0.1666745764480631
  0
VERTEX
  5
1CA
  8
SignTorch_-_COON021_
 10
9.162040435791015
 20
6.12108882358339
 30
0.0
 42
0.0940639151095363
  0
VERTEX
  5
1CB
  8
SignTorch_-_COON021_
 10
9.241315995194658
 20
6.129458914018264
 30
0.0
 42
-0.0943934596743047
  0
VERTEX
  5
1CC
  8
SignTorch_-_COON021_
 10
9.388552154541017
 20
6.144907182958391
 30
0.0
 42
-0.2582806607300517
  0
VERTEX
  5
1CD
  8
SignTorch_-_COON021_
 10
9.504666324998656
 20
6.06729610842914
 30
0.0
 42
0.1352500084883333
  0
VERTEX
  5
1CE
  8
SignTorch_-_COON021_
 10
9.599349029541017
 20
5.964625932958391
 30
0.0
 42
-0.0162565788745072
  0
VERTEX
  5
1CF
  8
SignTorch_-_COON021_
 10
9.694193884660478
 20
5.901191931329691
 30
0.0
 42
-0.0711275583652936
  0
VERTEX
  5
1D0
  8
SignTorch_-_COON021_
 10
9.713114654541014
 20
5.883063432958391
 30
0.0
 42
-0.0032132732051684
  0
VERTEX
  5
1D1
  8
SignTorch_-_COON021_
 10
9.767413640553615
 20
5.812859198961856
 30
0.0
 42
0.1554981880940549
  0
VERTEX
  5
1D2
  8
SignTorch_-_COON021_
 10
9.827028717041015
 20
5.771161089208391
 30
0.0
 42
0.0556451499699822
  0
VERTEX
  5
1D3
  8
SignTorch_-_COON021_
 10
9.890841452524882
 20
5.758844991102014
 30
0.0
 42
-0.0088826459647146
  0
VERTEX
  5
1D4
  8
SignTorch_-_COON021_
 10
10.14934902954102
 20
5.733625932958391
 30
0.0
 42
0.0056405592438783
  0
VERTEX
  5
1D5
  8
SignTorch_-_COON021_
 10
10.26489303576932
 20
5.721597093812167
 30
0.0
 42
-0.0091789316413617
  0
SEQEND
  5
1D6
  8
SignTorch_-_COON021_
  0
POLYLINE
  5
46
  8
SignTorch_-_COON021_
 66
     1
 10
0.0
 20
0.0
 30
0.0
 70
     1
  0
VERTEX
  5
1D7
  8
SignTorch_-_COON021_
 10
9.837130279541014
 20
4.281844682958391
 30
0.0
 42
0.0213708795031185
  0
VERTEX
  5
1D8
  8
SignTorch_-_COON021_
 10
9.68862157944068
 20
4.431685106084196
 30
0.0
 42
0.169274987436233
  0
VERTEX
  5
1D9
  8
SignTorch_-_COON021_
 10
9.477380279541014
 20
4.52393843295839
 30
0.0
 42
0.1104424225482648
  0
VERTEX
  5
1DA
  8
SignTorch_-_COON021_
 10
9.247265926522235
 20
4.490663000004619
 30
0.0
 42
0.1277392021091756
  0
VERTEX
  5
1DB
  8
SignTorch_-_COON021_
 10
8.960599029541015
 20
4.28700093295839
 30
0.0
 42
-0.0219908386452142
  0
VERTEX
  5
1DC
  8
SignTorch_-_COON021_
 10
8.906503302403955
 20
4.228107809139771
 30
0.0
 42
-0.4703651653542305
  0
VERTEX
  5
1DD
  8
SignTorch_-_COON021_
 10
8.830599029541016
 20
4.235375932958391
 30
0.0
 42
-0.2927369293521713
  0
VERTEX
  5
1DE
  8
SignTorch_-_COON021_
 10
8.828127525374178
 20
4.328783021938452
 30
0.0
 42
-0.1471565925441734
  0
VERTEX
  5
1DF
  8
SignTorch_-_COON021_
 10
9.114474029541014
 20
4.587875932958391
 30
0.0
 42
-0.0930809208423194
  0
VERTEX
  5
1E0
  8
SignTorch_-_COON021_
 10
9.433984792928666
 20
4.672062525430537
 30
0.0
 42
-0.180927463415416
  0
VERTEX
  5
1E1
  8
SignTorch_-_COON021_
 10
9.767815826416017
 20
4.573903276708391
 30
0.0
 42
-0.0785003875476121
  0
VERTEX
  5
1E2
  8
SignTorch_-_COON021_
 10
9.934227515110962
 20
4.402339635200832
 30
0.0
 42
-0.071317141403096
  0
VERTEX
  5
1E3
  8
SignTorch_-_COON021_
 10
10.00300527954102
 20
4.267303667333391
 30
0.0
 42
-0.0974411658504197
  0
VERTEX
  5
1E4
  8
SignTorch_-_COON021_
 10
10.01058986355397
 20
4.211219764245508
 30
0.0
 42
-0.5088810834105286
  0
VERTEX
  5
1E5
  8
SignTorch_-_COON021_
 10
9.952849029541015
 20
4.17425093295839
 30
0.0
 42
-0.0945476139289679
  0
VERTEX
  5
1E6
  8
SignTorch_-_COON021_
 10
9.92836064044417
 20
4.18962082379006
 30
0.0
 42
-0.020894743227229
  0
SEQEND
  5
1E7
  8
SignTorch_-_COON021_
  0
POLYLINE
  5
47
  8
SignTorch_-_COON021_
 66
     1
 10
0.0
 20
0.0
 30
0.0
 70
     1
  0
VERTEX
  5
1E8
  8
SignTorch_-_COON021_
 10
9.182224029541015
 20
4.02725093295839
 30
0.0
 42
-0.2318908382481911
  0
VERTEX
  5
1E9
  8
SignTorch_-_COON021_
 10
9.232511275327504
 20
4.236628849446981
 30
0.0
 42
-0.1916900641325706
  0
VERTEX
  5
1EA
  8
SignTorch_-_COON021_
 10
9.457349029541016
 20
4.359625932958391
 30
0.0
 42
-0.2318365939422136
  0
VERTEX
  5
1EB
  8
SignTorch_-_COON021_
 10
9.613293594722954
 20
4.305541922945453
 30
0.0
 42
-0.2782269939191289
  0
VERTEX
  5
1EC
  8
SignTorch_-_COON021_
 10
9.701159576416018
 20
3.944315386083391
 30
0.0
 42
-0.1904009283822956
  0
VERTEX
  5
1ED
  8
SignTorch_-_COON021_
 10
9.572932708902403
 20
3.7858833835809
 30
0.0
 42
-0.1937686736475321
  0
VERTEX
  5
1EE
  8
SignTorch_-_COON021_
 10
9.374130279541015
 20
3.759631792333391
 30
0.0
 42
-0.2031703063938888
  0
VERTEX
  5
1EF
  8
SignTorch_-_COON021_
 10
9.248576883935641
 20
3.855552113016552
 30
0.0
 42
-0.0745141069114729
  0
SEQEND
  5
1F0
  8
SignTorch_-_COON021_
  0
POLYLINE
  5
48
  8
SignTorch_-_COON021_
 66
     1
 10
0.0
 20
0.0
 30
0.0
 70
     1
  0
VERTEX
  5
1F1
  8
SignTorch_-_COON021_
 10
9.093349029541017
 20
3.46862593295839
 30
0.0
 42
0.1653405146143833
  0
VERTEX
  5
1F2
  8
SignTorch_-_COON021_
 10
9.494358068395512
 20
3.357032338473138
 30
0.0
 42
0.2887501285954222
  0
VERTEX
  5
1F3
  8
SignTorch_-_COON021_
 10
9.878099029541016
 20
3.630125932958391
 30
0.0
 42
-0.0081125002767402
  0
VERTEX
  5
1F4
  8
SignTorch_-_COON021_
 10
9.924615409610627
 20
3.738242446477132
 30
0.0
 42
-0.3903863162577051
  0
VERTEX
  5
1F5
  8
SignTorch_-_COON021_
 10
9.967849029541016
 20
3.756719682958391
 30
0.0
 42
-0.2962347147440767
  0
VERTEX
  5
1F6
  8
SignTorch_-_COON021_
 10
10.00205795245995
 20
3.712119586217786
 30
0.0
 42
-0.1465936884808633
  0
VERTEX
  5
1F7
  8
SignTorch_-_COON021_
 10
9.952468170166014
 20
3.482623979833391
 30
0.0
 42
-0.1302396504431235
  0
VERTEX
  5
1F8
  8
SignTorch_-_COON021_
 10
9.788223786822043
 20
3.310833266058039
 30
0.0
 42
-0.1020469375025002
  0
VERTEX
  5
1F9
  8
SignTorch_-_COON021_
 10
9.504645904541016
 20
3.208782182958391
 30
0.0
 42
-0.1005239550102953
  0
VERTEX
  5
1FA
  8
SignTorch_-_COON021_
 10
9.34306027113271
 20
3.218217268041776
 30
0.0
 42
-0.0691999527971607
  0
VERTEX
  5
1FB
  8
SignTorch_-_COON021_
 10
9.127349029541016
 20
3.308625932958391
 30
0.0
 42
-0.1856857388561663
  0
VERTEX
  5
1FC
  8
SignTorch_-_COON021_
 10
8.994793204621972
 20
3.476440584157765
 30
0.0
 42
-0.5709074160372467
  0
VERTEX
  5
1FD
  8
SignTorch_-_COON021_
 10
9.024974029541015
 20
3.50975093295839
 30
0.0
 42
-0.0848620565040338
  0
VERTEX
  5
1FE
  8
SignTorch_-_COON021_
 10
9.03585426412172
 20
3.505503633755769
 30
0.0
 42
-0.0144102163359021
  0
SEQEND
  5
1FF
  8
SignTorch_-_COON021_
  0
POLYLINE
  5
49
  8
SignTorch_-_COON021_
 66
     1
 10
0.0
 20
0.0
 30
0.0
 70
     1
  0
VERTEX
  5
200
  8
SignTorch_-_COON021_
 10
8.192349029541015
 20
3.05362593295839
 30
0.0
 42
-0.0844169030876948
  0
VERTEX
  5
201
  8
SignTorch_-_COON021_
 10
8.181576336699848
 20
3.252478876404465
 30
0.0
 42
-0.2503808890685373
  0
VERTEX
  5
202
  8
SignTorch_-_COON021_
 10
8.221870513916016
 20
3.310750932958391
 30
0.0
 42
-0.4669265737367259
  0
VERTEX
  5
203
  8
SignTorch_-_COON021_
 10
8.302904606352921
 20
3.276629023717068
 30
0.0
 42
0.0574060307046625
  0
VERTEX
  5
204
  8
SignTorch_-_COON021_
 10
8.366599029541016
 20
3.131375932958391
 30
0.0
 42
-0.0014522138907925
  0
VERTEX
  5
205
  8
SignTorch_-_COON021_
 10
8.427867783979707
 20
3.025606858346407
 30
0.0
 42
-0.018953330861129
  0
VERTEX
  5
206
  8
SignTorch_-_COON021_
 10
8.484739654541016
 20
2.91748530795839
 30
0.0
 42
0.0860637405778742
  0
VERTEX
  5
207
  8
SignTorch_-_COON021_
 10
8.522782356801558
 20
2.863975088218222
 30
0.0
 42
0.157943463157831
  0
VERTEX
  5
208
  8
SignTorch_-_COON021_
 10
8.555270904541016
 20
2.847563432958391
 30
0.0
 42
0.1055281191236328
  0
VERTEX
  5
209
  8
SignTorch_-_COON021_
 10
8.643242164410966
 20
2.852478750616965
 30
0.0
 42
-0.157351623706635
  0
VERTEX
  5
20A
  8
SignTorch_-_COON021_
 10
8.731257232666017
 20
2.848422807958391
 30
0.0
 42
-0.1516347129165218
  0
VERTEX
  5
20B
  8
SignTorch_-_COON021_
 10
8.79215919971205
 20
2.801237410945013
 30
0.0
 42
-0.0491509313741662
  0
VERTEX
  5
20C
  8
SignTorch_-_COON021_
 10
8.906349029541015
 20
2.598250932958391
 30
0.0
 42
0.0131020006579617
  0
VERTEX
  5
20D
  8
SignTorch_-_COON021_
 10
8.966313633048497
 20
2.471012381685925
 30
0.0
 42
0.2220700419989642
  0
VERTEX
  5
20E
  8
SignTorch_-_COON021_
 10
9.014962310791015
 20
2.432696245458391
 30
0.0
 42
0.0959340217417793
  0
VERTEX
  5
20F
  8
SignTorch_-_COON021_
 10
9.144047346845502
 20
2.42768404913212
 30
0.0
 42
-0.1354717265728731
  0
VERTEX
  5
210
  8
SignTorch_-_COON021_
 10
9.272349029541015
 20
2.412625932958391
 30
0.0
 42
-0.220525426743381
  0
VERTEX
  5
211
  8
SignTorch_-_COON021_
 10
9.362148978246168
 20
2.31634030899657
 30
0.0
 42
-0.0367935586661256
  0
VERTEX
  5
212
  8
SignTorch_-_COON021_
 10
9.415927154541015
 20
2.099313432958391
 30
0.0
 42
0.0100870331158778
  0
VERTEX
  5
213
  8
SignTorch_-_COON021_
 10
9.452185626045695
 20
1.910293899999917
 30
0.0
 42
0.2147748921289972
  0
VERTEX
  5
214
  8
SignTorch_-_COON021_
 10
9.500349029541015
 20
1.844625932958391
 30
0.0
 42
0.0549611104360921
  0
VERTEX
  5
215
  8
SignTorch_-_COON021_
 10
9.60411716541287
 20
1.800134992311733
 30
0.0
 42
-0.2307539233330963
  0
VERTEX
  5
216
  8
SignTorch_-_COON021_
 10
9.686819732666017
 20
1.723274370458391
 30
0.0
 42
-0.0799336107006196
  0
VERTEX
  5
217
  8
SignTorch_-_COON021_
 10
9.708778609314692
 20
1.61968982003365
 30
0.0
 42
0.1192352141326488
  0
VERTEX
  5
218
  8
SignTorch_-_COON021_
 10
9.738724029541016
 20
1.518125932958391
 30
0.0
 42
0.3479725375037719
  0
VERTEX
  5
219
  8
SignTorch_-_COON021_
 10
9.84095768415787
 20
1.477648610311897
 30
0.0
 42
-0.013894439829459
  0
VERTEX
  5
21A
  8
SignTorch_-_COON021_
 10
9.975833404541016
 20
1.514245073583391
 30
0.0
 42
-0.0231640612097437
  0
VERTEX
  5
21B
  8
SignTorch_-_COON021_
 10
10.32514077758229
 20
1.581731210143824
 30
0.0
 42
-0.0193952980505485
  0
VERTEX
  5
21C
  8
SignTorch_-_COON021_
 10
11.02134902954102
 20
1.65562593295839
 30
0.0
 42
-0.0575342703166994
  0
VERTEX
  5
21D
  8
SignTorch_-_COON021_
 10
11.14464501639433
 20
1.649705075276892
 30
0.0
 42
-0.2604358863453746
  0
VERTEX
  5
21E
  8
SignTorch_-_COON021_
 10
11.16734902954102
 20
1.631625932958391
 30
0.0
 42
-0.5125809958032002
  0
VERTEX
  5
21F
  8
SignTorch_-_COON021_
 10
11.14514109320188
 20
1.596090022480198
 30
0.0
 42
-0.0105440846871604
  0
VERTEX
  5
220
  8
SignTorch_-_COON021_
 10
11.04334902954102
 20
1.591625932958391
 30
0.0
 42
0.0407512791472539
  0
VERTEX
  5
221
  8
SignTorch_-_COON021_
 10
10.79577492735012
 20
1.565735688776835
 30
0.0
 42
0.04426894897213
  0
VERTEX
  5
222
  8
SignTorch_-_COON021_
 10
10.18197402954102
 20
1.393125932958391
 30
0.0
 42
0.0059700444605624
  0
VERTEX
  5
223
  8
SignTorch_-_COON021_
 10
10.02800683365603
 20
1.332599524649307
 30
0.0
 42
0.1436712752961556
  0
VERTEX
  5
224
  8
SignTorch_-_COON021_
 10
9.995349029541016
 20
1.306625932958391
 30
0.0
 42
0.5804615798632977
  0
VERTEX
  5
225
  8
SignTorch_-_COON021_
 10
10.00881342682739
 20
1.277901828425741
 30
0.0
 42
0.0395128417514192
  0
VERTEX
  5
226
  8
SignTorch_-_COON021_
 10
10.07311465454102
 20
1.277797807958391
 30
0.0
 42
-0.0062776087736245
  0
VERTEX
  5
227
  8
SignTorch_-_COON021_
 10
10.31777427806138
 20
1.293676887904719
 30
0.0
 42
-0.0199747065535927
  0
VERTEX
  5
228
  8
SignTorch_-_COON021_
 10
10.39484902954102
 20
1.294625932958391
 30
0.0
 42
-0.014002853554425
  0
VERTEX
  5
229
  8
SignTorch_-_COON021_
 10
10.7958659479704
 20
1.272292191070674
 30
0.0
 42
-0.0858983562890867
  0
VERTEX
  5
22A
  8
SignTorch_-_COON021_
 10
10.85967715454102
 20
1.255657182958391
 30
0.0
 42
-0.2213983386670554
  0
VERTEX
  5
22B
  8
SignTorch_-_COON021_
 10
10.88246477526809
 20
1.229072239641066
 30
0.0
 42
-0.3236934122146205
  0
VERTEX
  5
22C
  8
SignTorch_-_COON021_
 10
10.87373965454102
 20
1.205407182958391
 30
0.0
 42
-0.1461716018353584
  0
VERTEX
  5
22D
  8
SignTorch_-_COON021_
 10
10.82107342027475
 20
1.189047461972418
 30
0.0
 42
0.0223622589615384
  0
VERTEX
  5
22E
  8
SignTorch_-_COON021_
 10
10.60214590454102
 20
1.176860307958391
 30
0.0
 42
0.0263650782853058
  0
VERTEX
  5
22F
  8
SignTorch_-_COON021_
 10
9.987114044085166
 20
1.081990806030523
 30
0.0
 42
0.1567541470709971
  0
VERTEX
  5
230
  8
SignTorch_-_COON021_
 10
9.893940826416015
 20
1.029045854833391
 30
0.0
 42
0.2479230006586175
  0
VERTEX
  5
231
  8
SignTorch_-_COON021_
 10
9.878816079983489
 20
0.9715036481487537
 30
0.0
 42
0.2569758249027561
  0
VERTEX
  5
232
  8
SignTorch_-_COON021_
 10
9.917349029541016
 20
0.928625932958391
 30
0.0
 42
0.0943829594588504
  0
VERTEX
  5
233
  8
SignTorch_-_COON021_
 10
10.06148414187365
 20
0.9072191446220602
 30
0.0
 42
-0.0771859959850673
  0
VERTEX
  5
234
  8
SignTorch_-_COON021_
 10
10.33034902954101
 20
0.8766259329583911
 30
0.0
 42
0.0489283498935245
  0
VERTEX
  5
235
  8
SignTorch_-_COON021_
 10
10.77410031236591
 20
0.8006416272791925
 30
0.0
 42
-0.0926204755395287
  0
VERTEX
  5
236
  8
SignTorch_-_COON021_
 10
10.88305215454102
 20
0.7720634329583911
 30
0.0
 42
-0.1467866677939817
  0
VERTEX
  5
237
  8
SignTorch_-_COON021_
 10
10.91540108720151
 20
0.7429544952373556
 30
0.0
 42
-0.4287728864345222
  0
VERTEX
  5
238
  8
SignTorch_-_COON021_
 10
10.90570840454102
 20
0.7070321829583909
 30
0.0
 42
-0.163771543985436
  0
VERTEX
  5
239
  8
SignTorch_-_COON021_
 10
10.85066259822371
 20
0.6974434986496815
 30
0.0
 42
0.0291564263434823
  0
VERTEX
  5
23A
  8
SignTorch_-_COON021_
 10
10.62972402954102
 20
0.7182509329583908
 30
0.0
 42
0.0103611919174227
  0
VERTEX
  5
23B
  8
SignTorch_-_COON021_
 10
10.4244832722088
 20
0.7213056592731194
 30
0.0
 42
-0.0061357037464916
  0
VERTEX
  5
23C
  8
SignTorch_-_COON021_
 10
10.21922402954102
 20
0.7226259329583908
 30
0.0
 42
0.0304340081662712
  0
VERTEX
  5
23D
  8
SignTorch_-_COON021_
 10
9.97695668857706
 20
0.7124093214880036
 30
0.0
 42
0.1730756389638552
  0
VERTEX
  5
23E
  8
SignTorch_-_COON021_
 10
9.937368560791015
 20
0.6934931204583906
 30
0.0
 42
0.3793334309428411
  0
VERTEX
  5
23F
  8
SignTorch_-_COON021_
 10
9.934684937850287
 20
0.6465956795461327
 30
0.0
 42
0.0040193605260029
  0
VERTEX
  5
240
  8
SignTorch_-_COON021_
 10
10.01129043579102
 20
0.551086870458391
 30
0.0
 42
-0.0833596725299803
  0
VERTEX
  5
241
  8
SignTorch_-_COON021_
 10
10.05635266654052
 20
0.4719644979018175
 30
0.0
 42
-0.2597340664706958
  0
VERTEX
  5
242
  8
SignTorch_-_COON021_
 10
10.04493496704102
 20
0.3997743704583909
 30
0.0
 42
-0.070046557463303
  0
VERTEX
  5
243
  8
SignTorch_-_COON021_
 10
10.00954819128133
 20
0.3657459829953422
 30
0.0
 42
0.1940890997325844
  0
VERTEX
  5
244
  8
SignTorch_-_COON021_
 10
9.983411529541016
 20
0.324188432958391
 30
0.0
 42
0.1011123713106528
  0
VERTEX
  5
245
  8
SignTorch_-_COON021_
 10
9.984493086886456
 20
0.2782373208167844
 30
0.0
 42
-0.1751338606570106
  0
VERTEX
  5
246
  8
SignTorch_-_COON021_
 10
9.962224029541016
 20
0.096125932958391
 30
0.0
 42
-0.0439228767663584
  0
VERTEX
  5
247
  8
SignTorch_-_COON021_
 10
9.912663670308225
 20
0.0164077723860818
 30
0.0
 42
-0.0150214038607571
  0
VERTEX
  5
248
  8
SignTorch_-_COON021_
 10
9.741641998291016
 20
-0.197672895166609
 30
0.0
 42
-0.1407982620620578
  0
VERTEX
  5
249
  8
SignTorch_-_COON021_
 10
9.60348800330691
 20
-0.2895655344236882
 30
0.0
 42
-0.0310285028811922
  0
VERTEX
  5
24A
  8
SignTorch_-_COON021_
 10
9.476349029541016
 20
-0.3213740670416089
 30
0.0
 42
0.0136802246225047
  0
VERTEX
  5
24B
  8
SignTorch_-_COON021_
 10
9.29257288966144
 20
-0.3606361006252217
 30
0.0
 42
-0.0340801570600309
  0
VERTEX
  5
24C
  8
SignTorch_-_COON021_
 10
9.107349029541014
 20
-0.3923740670416088
 30
0.0
 42
-0.0137005914546466
  0
VERTEX
  5
24D
  8
SignTorch_-_COON021_
 10
8.918593447129702
 20
-0.406399377419306
 30
0.0
 42
0.0284504336634879
  0
VERTEX
  5
24E
  8
SignTorch_-_COON021_
 10
8.730333404541016
 20
-0.425983442041609
 30
0.0
 42
0.0240060350601172
  0
VERTEX
  5
24F
  8
SignTorch_-_COON021_
 10
8.518072063793225
 20
-0.4709019542288718
 30
0.0
 42
-0.1280746101797489
  0
VERTEX
  5
250
  8
SignTorch_-_COON021_
 10
8.463599029541015
 20
-0.470999067041609
 30
0.0
 42
-0.0079947003307237
  0
VERTEX
  5
251
  8
SignTorch_-_COON021_
 10
8.406700034354701
 20
-0.4553149704183703
 30
0.0
 42
0.0232552459652043
  0
VERTEX
  5
252
  8
SignTorch_-_COON021_
 10
8.349349029541017
 20
-0.4413740670416091
 30
0.0
 42
-0.0841681253254874
  0
VERTEX
  5
253
  8
SignTorch_-_COON021_
 10
8.28525325513646
 20
-0.4172560022858656
 30
0.0
 42
-0.3855549174273463
  0
VERTEX
  5
254
  8
SignTorch_-_COON021_
 10
8.259192779541015
 20
-0.3350459420416091
 30
0.0
 42
-0.1958001564972581
  0
VERTEX
  5
255
  8
SignTorch_-_COON021_
 10
8.316307123806297
 20
-0.2812936529418547
 30
0.0
 42
-0.0016750931728608
  0
VERTEX
  5
256
  8
SignTorch_-_COON021_
 10
8.514849029541017
 20
-0.205420942041609
 30
0.0
 42
0.063026192741483
  0
VERTEX
  5
257
  8
SignTorch_-_COON021_
 10
8.742156889025987
 20
-0.0848892036571332
 30
0.0
 42
0.1605308964425297
  0
VERTEX
  5
258
  8
SignTorch_-_COON021_
 10
8.984536529541014
 20
0.2413290579583908
 30
0.0
 42
0.1245604188983706
  0
VERTEX
  5
259
  8
SignTorch_-_COON021_
 10
9.005445647666903
 20
0.5279755350772154
 30
0.0
 42
0.0822090469768019
  0
VERTEX
  5
25A
  8
SignTorch_-_COON021_
 10
8.861849029541014
 20
0.9351103079583908
 30
0.0
 42
0.1316245004015292
  0
VERTEX
  5
25B
  8
SignTorch_-_COON021_
 10
8.640044805292144
 20
1.166212228748425
 30
0.0
 42
-0.0346937146641113
  0
VERTEX
  5
25C
  8
SignTorch_-_COON021_
 10
8.378145904541016
 20
1.350641557958391
 30
0.0
 42
-0.0288507721924656
  0
VERTEX
  5
25D
  8
SignTorch_-_COON021_
 10
8.236577994239461
 20
1.480057593961521
 30
0.0
 42
0.0334852725398309
  0
VERTEX
  5
25E
  8
SignTorch_-_COON021_
 10
8.093817779541016
 20
1.608157182958391
 30
0.0
 42
-0.0519132252974528
  0
VERTEX
  5
25F
  8
SignTorch_-_COON021_
 10
8.042456112155413
 20
1.657773207692293
 30
0.0
 42
-0.5000907667869634
  0
VERTEX
  5
260
  8
SignTorch_-_COON021_
 10
8.059583404541018
 20
1.731422807958391
 30
0.0
 42
-0.1744010232027635
  0
VERTEX
  5
261
  8
SignTorch_-_COON021_
 10
8.127786553047416
 20
1.736173116744636
 30
0.0
 42
0.1045589631983145
  0
VERTEX
  5
262
  8
SignTorch_-_COON021_
 10
8.254349029541016
 20
1.727625932958391
 30
0.0
 42
0.2907929186546683
  0
VERTEX
  5
263
  8
SignTorch_-_COON021_
 10
8.370750271761366
 20
1.82705182869846
 30
0.0
 42
0.070679539618857
  0
VERTEX
  5
264
  8
SignTorch_-_COON021_
 10
8.404849029541015
 20
2.042750932958391
 30
0.0
 42
0.0502054141848562
  0
VERTEX
  5
265
  8
SignTorch_-_COON021_
 10
8.380154618628367
 20
2.333730409841151
 30
0.0
 42
0.0439722983748746
  0
VERTEX
  5
266
  8
SignTorch_-_COON021_
 10
8.290349029541016
 20
2.654625932958391
 30
0.0
 42
-0.0299889179183762
  0
VERTEX
  5
267
  8
SignTorch_-_COON021_
 10
8.274226246903838
 20
2.706598034685046
 30
0.0
 42
-0.0045727137615566
  0
SEQEND
  5
268
  8
SignTorch_-_COON021_
  0
POLYLINE
  5
4A
  8
SignTorch_-_COON021_
 66
     1
 10
0.0
 20
0.0
 30
0.0
 70
     1
  0
VERTEX
  5
269
  8
SignTorch_-_COON021_
 10
4.610099029541015
 20
5.471625932958391
 30
0.0
 42
0.074684570125114
  0
VERTEX
  5
26A
  8
SignTorch_-_COON021_
 10
4.784124175179051
 20
5.549919567918863
 30
0.0
 42
0.1797515082131975
  0
VERTEX
  5
26B
  8
SignTorch_-_COON021_
 10
4.832942779541015
 20
5.615047807958391
 30
0.0
 42
0.0437951043024346
  0
VERTEX
  5
26C
  8
SignTorch_-_COON021_
 10
4.850910178019255
 20
5.703687713486167
 30
0.0
 42
-0.1606166931014108
  0
VERTEX
  5
26D
  8
SignTorch_-_COON021_
 10
4.888692779541016
 20
5.785860307958391
 30
0.0
 42
-0.178513542922879
  0
VERTEX
  5
26E
  8
SignTorch_-_COON021_
 10
5.015091877460863
 20
5.849750261342785
 30
0.0
 42
-0.0452713279244886
  0
VERTEX
  5
26F
  8
SignTorch_-_COON021_
 10
5.216349029541015
 20
5.85462593295839
 30
0.0
 42
0.2044183267841006
  0
VERTEX
  5
270
  8
SignTorch_-_COON021_
 10
5.305887053668782
 20
5.885999049280311
 30
0.0
 42
0.0792642463940707
  0
VERTEX
  5
271
  8
SignTorch_-_COON021_
 10
5.343599029541015
 20
5.93337593295839
 30
0.0
 42
-0.0054878581898502
  0
VERTEX
  5
272
  8
SignTorch_-_COON021_
 10
5.393360804962399
 20
6.019272822765033
 30
0.0
 42
-0.1799247891404314
  0
VERTEX
  5
273
  8
SignTorch_-_COON021_
 10
5.464087310791015
 20
6.07631538608339
 30
0.0
 42
-0.1269431086431955
  0
VERTEX
  5
274
  8
SignTorch_-_COON021_
 10
5.627807590202572
 20
6.087815975039145
 30
0.0
 42
0.0835122535686228
  0
VERTEX
  5
275
  8
SignTorch_-_COON021_
 10
5.716203521728516
 20
6.086422075536515
 30
0.0
 42
0.3769142309472607
  0
VERTEX
  5
276
  8
SignTorch_-_COON021_
 10
5.773578970874367
 20
6.154674820042285
 30
0.0
 42
-0.1005250047447941
  0
VERTEX
  5
277
  8
SignTorch_-_COON021_
 10
5.789411529541015
 20
6.242422807958391
 30
0.0
 42
-0.3725695693597401
  0
VERTEX
  5
278
  8
SignTorch_-_COON021_
 10
5.870365387454432
 20
6.284427562573002
 30
0.0
 42
-0.1286573168806101
  0
VERTEX
  5
279
  8
SignTorch_-_COON021_
 10
6.078317779541015
 20
6.173360307958391
 30
0.0
 42
-0.0457008082588347
  0
VERTEX
  5
27A
  8
SignTorch_-_COON021_
 10
6.285969951491234
 20
5.942719531750621
 30
0.0
 42
-0.0340774862489973
  0
VERTEX
  5
27B
  8
SignTorch_-_COON021_
 10
6.511591217041016
 20
5.59343843295839
 30
0.0
 42
-0.0378767358804458
  0
VERTEX
  5
27C
  8
SignTorch_-_COON021_
 10
6.574274262531983
 20
5.456646904907203
 30
0.0
 42
0.003572141906236
  0
VERTEX
  5
27D
  8
SignTorch_-_COON021_
 10
6.652224029541014
 20
5.250250932958391
 30
0.0
 42
-0.0048693166679652
  0
VERTEX
  5
27E
  8
SignTorch_-_COON021_
 10
6.714164878293542
 20
5.084947291229635
 30
0.0
 42
-0.0273773592286123
  0
VERTEX
  5
27F
  8
SignTorch_-_COON021_
 10
6.723270904541015
 20
5.054875932958391
 30
0.0
 42
-0.0646057014434568
  0
VERTEX
  5
280
  8
SignTorch_-_COON021_
 10
6.779888441534619
 20
4.543482551205877
 30
0.0
 42
-0.115013246785237
  0
VERTEX
  5
281
  8
SignTorch_-_COON021_
 10
6.708364654541015
 20
4.260766557958391
 30
0.0
 42
-0.2528471373838749
  0
VERTEX
  5
282
  8
SignTorch_-_COON021_
 10
6.561277754433695
 20
4.16042504710246
 30
0.0
 42
-0.1307232710338319
  0
VERTEX
  5
283
  8
SignTorch_-_COON021_
 10
6.395349029541015
 20
4.186625932958391
 30
0.0
 42
-0.0242224105122762
  0
VERTEX
  5
284
  8
SignTorch_-_COON021_
 10
6.324180106476222
 20
4.222332487037425
 30
0.0
 42
-0.0076746354265141
  0
VERTEX
  5
285
  8
SignTorch_-_COON021_
 10
6.107313873291015
 20
4.349049761083391
 30
0.0
 42
-0.0510990228469677
  0
VERTEX
  5
286
  8
SignTorch_-_COON021_
 10
5.984955555016313
 20
4.441347363270419
 30
0.0
 42
-0.0591371862923004
  0
VERTEX
  5
287
  8
SignTorch_-_COON021_
 10
5.899130279541016
 20
4.542360307958392
 30
0.0
 42
0.011437180822663
  0
VERTEX
  5
288
  8
SignTorch_-_COON021_
 10
5.783582884500513
 20
4.708027023788256
 30
0.0
 42
0.0388904428802667
  0
VERTEX
  5
289
  8
SignTorch_-_COON021_
 10
5.684724029541015
 20
4.823125932958391
 30
0.0
 42
-0.023520349123556
  0
VERTEX
  5
28A
  8
SignTorch_-_COON021_
 10
5.559341666570161
 20
4.96034605797101
 30
0.0
 42
0.0933189737739181
  0
VERTEX
  5
28B
  8
SignTorch_-_COON021_
 10
5.523474029541015
 20
4.990032182958391
 30
0.0
 42
0.5144986870604059
  0
VERTEX
  5
28C
  8
SignTorch_-_COON021_
 10
5.491299437320722
 20
4.974684938527616
 30
0.0
 42
0.0508798405353307
  0
VERTEX
  5
28D
  8
SignTorch_-_COON021_
 10
5.486349029541016
 20
4.90762593295839
 30
0.0
 42
-0.0468629775837532
  0
VERTEX
  5
28E
  8
SignTorch_-_COON021_
 10
5.475238621299313
 20
4.738692620888231
 30
0.0
 42
-0.2054806058038909
  0
VERTEX
  5
28F
  8
SignTorch_-_COON021_
 10
5.414434967041015
 20
4.64270405795839
 30
0.0
 42
-0.2042834243865923
  0
VERTEX
  5
290
  8
SignTorch_-_COON021_
 10
5.314222208192732
 20
4.622618860833887
 30
0.0
 42
-0.0419164653301307
  0
VERTEX
  5
291
  8
SignTorch_-_COON021_
 10
5.161114654541015
 20
4.668141557958391
 30
0.0
 42
0.064440110130837
  0
VERTEX
  5
292
  8
SignTorch_-_COON021_
 10
5.081591316417039
 20
4.68794668429252
 30
0.0
 42
0.1670102844894351
  0
VERTEX
  5
293
  8
SignTorch_-_COON021_
 10
5.049972076416015
 20
4.681022417333391
 30
0.0
 42
0.0345501303984144
  0
VERTEX
  5
294
  8
SignTorch_-_COON021_
 10
4.998563655232955
 20
4.644660001931777
 30
0.0
 42
-0.1207830625162173
  0
VERTEX
  5
295
  8
SignTorch_-_COON021_
 10
4.941708404541016
 20
4.617594682958391
 30
0.0
 42
-0.1389348965803023
  0
VERTEX
  5
296
  8
SignTorch_-_COON021_
 10
4.82767012600128
 20
4.625843519177228
 30
0.0
 42
0.0483809352698506
  0
VERTEX
  5
297
  8
SignTorch_-_COON021_
 10
4.622349029541015
 20
4.678625932958391
 30
0.0
 42
0.1365337481133634
  0
VERTEX
  5
298
  8
SignTorch_-_COON021_
 10
4.545187925767519
 20
4.66959953592187
 30
0.0
 42
0.2094397938317534
  0
VERTEX
  5
299
  8
SignTorch_-_COON021_
 10
4.509058013916015
 20
4.632342729833391
 30
0.0
 42
0.0709696175365581
  0
VERTEX
  5
29A
  8
SignTorch_-_COON021_
 10
4.486569526553799
 20
4.52957429060868
 30
0.0
 42
-0.2682708257601392
  0
VERTEX
  5
29B
  8
SignTorch_-_COON021_
 10
4.427349029541015
 20
4.442625932958391
 30
0.0
 42
-0.0490657434385122
  0
VERTEX
  5
29C
  8
SignTorch_-_COON021_
 10
4.342081374983421
 20
4.411441239391786
 30
0.0
 42
0.1258891985268706
  0
VERTEX
  5
29D
  8
SignTorch_-_COON021_
 10
4.262536529541014
 20
4.367672807958391
 30
0.0
 42
0.0849418748412863
  0
VERTEX
  5
29E
  8
SignTorch_-_COON021_
 10
4.1259096169416
 20
4.187138660135433
 30
0.0
 42
-0.1359226926350856
  0
VERTEX
  5
29F
  8
SignTorch_-_COON021_
 10
4.087349029541016
 20
4.14562593295839
 30
0.0
 42
-0.178514269133912
  0
VERTEX
  5
2A0
  8
SignTorch_-_COON021_
 10
4.019633460300859
 20
4.131987202151901
 30
0.0
 42
-0.0035081189739093
  0
VERTEX
  5
2A1
  8
SignTorch_-_COON021_
 10
3.750458404541015
 20
4.17586030795839
 30
0.0
 42
0.0957595441329477
  0
VERTEX
  5
2A2
  8
SignTorch_-_COON021_
 10
3.674113493067748
 20
4.174153679786438
 30
0.0
 42
0.2192115392599341
  0
VERTEX
  5
2A3
  8
SignTorch_-_COON021_
 10
3.646427154541015
 20
4.153329057958391
 30
0.0
 42
0.2036443366176091
  0
VERTEX
  5
2A4
  8
SignTorch_-_COON021_
 10
3.639158349155688
 20
4.074990348506691
 30
0.0
 42
-0.1556963566384733
  0
VERTEX
  5
2A5
  8
SignTorch_-_COON021_
 10
3.63918667602539
 20
3.996315141942766
 30
0.0
 42
-0.2685218305248227
  0
VERTEX
  5
2A6
  8
SignTorch_-_COON021_
 10
3.596713695840864
 20
3.957721828449126
 30
0.0
 42
-0.0057597206118701
  0
VERTEX
  5
2A7
  8
SignTorch_-_COON021_
 10
3.452895904541015
 20
3.928360307958391
 30
0.0
 42
0.0438118513622577
  0
VERTEX
  5
2A8
  8
SignTorch_-_COON021_
 10
3.288205808871681
 20
3.881459341976884
 30
0.0
 42
0.1483109769825242
  0
VERTEX
  5
2A9
  8
SignTorch_-_COON021_
 10
3.247427154541015
 20
3.849844682958391
 30
0.0
 42
0.0640729644361743
  0
VERTEX
  5
2AA
  8
SignTorch_-_COON021_
 10
3.204828087270478
 20
3.769761515548928
 30
0.0
 42
-0.2973710850796896
  0
VERTEX
  5
2AB
  8
SignTorch_-_COON021_
 10
3.131630279541015
 20
3.716188432958391
 30
0.0
 42
-0.0278088135476951
  0
VERTEX
  5
2AC
  8
SignTorch_-_COON021_
 10
3.068263970730713
 20
3.716307376962423
 30
0.0
 42
0.1074662053090389
  0
VERTEX
  5
2AD
  8
SignTorch_-_COON021_
 10
3.005673248291016
 20
3.706422807958391
 30
0.0
 42
0.0382605989543212
  0
VERTEX
  5
2AE
  8
SignTorch_-_COON021_
 10
2.922020250908732
 20
3.666299738957807
 30
0.0
 42
0.0372546413433204
  0
VERTEX
  5
2AF
  8
SignTorch_-_COON021_
 10
2.710458404541015
 20
3.522125932958391
 30
0.0
 42
0.0651268612307541
  0
VERTEX
  5
2B0
  8
SignTorch_-_COON021_
 10
2.608633354573269
 20
3.416708954118831
 30
0.0
 42
-0.1812862588733061
  0
VERTEX
  5
2B1
  8
SignTorch_-_COON021_
 10
2.485567779541015
 20
3.337110307958391
 30
0.0
 42
0.0097416609400486
  0
VERTEX
  5
2B2
  8
SignTorch_-_COON021_
 10
2.314828852626213
 20
3.296244537443075
 30
0.0
 42
0.0403967340114663
  0
VERTEX
  5
2B3
  8
SignTorch_-_COON021_
 10
2.274786529541015
 20
3.282297807958391
 30
0.0
 42
0.0060619912910271
  0
VERTEX
  5
2B4
  8
SignTorch_-_COON021_
 10
2.09311100379114
 20
3.199409793447666
 30
0.0
 42
-0.14046332022661
  0
VERTEX
  5
2B5
  8
SignTorch_-_COON021_
 10
1.939834381103516
 20
3.174508013036515
 30
0.0
 42
-0.0321161598399943
  0
VERTEX
  5
2B6
  8
SignTorch_-_COON021_
 10
1.829459516542505
 20
3.194850122984269
 30
0.0
 42
0.0529784792867393
  0
VERTEX
  5
2B7
  8
SignTorch_-_COON021_
 10
1.718333404541015
 20
3.210579057958391
 30
0.0
 42
-0.0070416328383876
  0
VERTEX
  5
2B8
  8
SignTorch_-_COON021_
 10
1.632635660992304
 20
3.21476720845924
 30
0.0
 42
-0.2414703544150953
  0
VERTEX
  5
2B9
  8
SignTorch_-_COON021_
 10
1.565243560791016
 20
3.254870073583391
 30
0.0
 42
-0.1348516448082507
  0
VERTEX
  5
2BA
  8
SignTorch_-_COON021_
 10
1.539194625612483
 20
3.341511276096761
 30
0.0
 42
-0.0696975194243899
  0
VERTEX
  5
2BB
  8
SignTorch_-_COON021_
 10
1.559052154541016
 20
3.513122026708391
 30
0.0
 42
-0.2574442358770602
  0
VERTEX
  5
2BC
  8
SignTorch_-_COON021_
 10
1.775230644178454
 20
3.741338850667268
 30
0.0
 42
0.0810710654718415
  0
VERTEX
  5
2BD
  8
SignTorch_-_COON021_
 10
1.927005279541015
 20
3.818497026708391
 30
0.0
 42
0.2031201505855239
  0
VERTEX
  5
2BE
  8
SignTorch_-_COON021_
 10
2.015019825508403
 20
3.966030401439736
 30
0.0
 42
-0.0984229240374604
  0
VERTEX
  5
2BF
  8
SignTorch_-_COON021_
 10
2.045349029541016
 20
4.053625932958391
 30
0.0
 42
-0.0252039757480218
  0
VERTEX
  5
2C0
  8
SignTorch_-_COON021_
 10
2.07330008568807
 20
4.096294499564363
 30
0.0
 42
-0.0055587209893289
  0
VERTEX
  5
2C1
  8
SignTorch_-_COON021_
 10
2.271173248291015
 20
4.361256792333391
 30
0.0
 42
-0.0297915703690365
  0
VERTEX
  5
2C2
  8
SignTorch_-_COON021_
 10
2.341589709772537
 20
4.442828973413735
 30
0.0
 42
-0.0418050816519889
  0
VERTEX
  5
2C3
  8
SignTorch_-_COON021_
 10
2.399599029541016
 20
4.493250932958391
 30
0.0
 42
0.0132794781272978
  0
VERTEX
  5
2C4
  8
SignTorch_-_COON021_
 10
2.4967220882895
 20
4.568400732797543
 30
0.0
 42
0.0288740176982602
  0
VERTEX
  5
2C5
  8
SignTorch_-_COON021_
 10
2.538349029541015
 20
4.606625932958391
 30
0.0
 42
-0.1489548014664964
  0
VERTEX
  5
2C6
  8
SignTorch_-_COON021_
 10
2.632036775233966
 20
4.658395706729061
 30
0.0
 42
0.1128144201418771
  0
VERTEX
  5
2C7
  8
SignTorch_-_COON021_
 10
2.684349029541015
 20
4.682625932958391
 30
0.0
 42
0.0350157035369999
  0
VERTEX
  5
2C8
  8
SignTorch_-_COON021_
 10
2.750126402004458
 20
4.741307383602948
 30
0.0
 42
-0.0873987647370379
  0
VERTEX
  5
2C9
  8
SignTorch_-_COON021_
 10
3.035942779541015
 20
4.947125932958391
 30
0.0
 42
-0.0958603031323182
  0
VERTEX
  5
2CA
  8
SignTorch_-_COON021_
 10
3.284626069813945
 20
5.012909149963382
 30
0.0
 42
-0.0113026196414865
  0
VERTEX
  5
2CB
  8
SignTorch_-_COON021_
 10
3.523349029541015
 20
5.02362593295839
 30
0.0
 42
0.0421716427186416
  0
VERTEX
  5
2CC
  8
SignTorch_-_COON021_
 10
3.668206677093244
 20
5.039119348355343
 30
0.0
 42
0.0943991056612367
  0
VERTEX
  5
2CD
  8
SignTorch_-_COON021_
 10
3.729099029541015
 20
5.06337593295839
 30
0.0
 42
0.0516896055665387
  0
VERTEX
  5
2CE
  8
SignTorch_-_COON021_
 10
3.858550997743191
 20
5.166063908620545
 30
0.0
 42
-0.0884472633712658
  0
VERTEX
  5
2CF
  8
SignTorch_-_COON021_
 10
3.995161529541015
 20
5.25901655795839
 30
0.0
 42
-0.0303589389344403
  0
VERTEX
  5
2D0
  8
SignTorch_-_COON021_
 10
4.186746420182872
 20
5.331201785444931
 30
0.0
 42
0.0231670810058819
  0
VERTEX
  5
2D1
  8
SignTorch_-_COON021_
 10
4.379349029541015
 20
5.40062593295839
 30
0.0
 42
-0.0234501234639702
  0
VERTEX
  5
2D2
  8
SignTorch_-_COON021_
 10
4.42691776914076
 20
5.417741813894266
 30
0.0
 42
-0.0062055414475223
  0
SEQEND
  5
2D3
  8
SignTorch_-_COON021_
  0
POLYLINE
  5
4B
  8
SignTorch_-_COON021_
 66
     1
 10
0.0
 20
0.0
 30
0.0
 70
     1
  0
VERTEX
  5
2D4
  8
SignTorch_-_COON021_
 10
5.226849029541015
 20
4.149000932958391
 30
0.0
 42
0.1637313828169068
  0
VERTEX
  5
2D5
  8
SignTorch_-_COON021_
 10
4.968844889679863
 20
4.126056344718403
 30
0.0
 42
0.0913004207282555
  0
VERTEX
  5
2D6
  8
SignTorch_-_COON021_
 10
4.591177154541015
 20
3.87023530795839
 30
0.0
 42
0.0301720454204625
  0
VERTEX
  5
2D7
  8
SignTorch_-_COON021_
 10
4.377239982732063
 20
3.632614786233554
 30
0.0
 42
-0.3388928033198743
  0
VERTEX
  5
2D8
  8
SignTorch_-_COON021_
 10
4.296885162353515
 20
3.612555620458391
 30
0.0
 42
-0.3065685145766953
  0
VERTEX
  5
2D9
  8
SignTorch_-_COON021_
 10
4.280219406324181
 20
3.638729388349103
 30
0.0
 42
-0.1200121461754356
  0
VERTEX
  5
2DA
  8
SignTorch_-_COON021_
 10
4.299599029541016
 20
3.709625932958391
 30
0.0
 42
-0.0451247184174437
  0
VERTEX
  5
2DB
  8
SignTorch_-_COON021_
 10
4.383617309892045
 20
3.833521479098223
 30
0.0
 42
-0.0535345352883516
  0
VERTEX
  5
2DC
  8
SignTorch_-_COON021_
 10
4.641354888916015
 20
4.087340776708391
 30
0.0
 42
-0.1092501192350478
  0
VERTEX
  5
2DD
  8
SignTorch_-_COON021_
 10
5.112516225851019
 20
4.316762015886971
 30
0.0
 42
-0.1959847692081923
  0
VERTEX
  5
2DE
  8
SignTorch_-_COON021_
 10
5.408849029541015
 20
4.271500932958391
 30
0.0
 42
-0.1177376868213333
  0
VERTEX
  5
2DF
  8
SignTorch_-_COON021_
 10
5.601307978336035
 20
4.083746352778764
 30
0.0
 42
-0.5829962460701438
  0
VERTEX
  5
2E0
  8
SignTorch_-_COON021_
 10
5.567391998291016
 20
4.020506792333391
 30
0.0
 42
-0.1432251382366034
  0
VERTEX
  5
2E1
  8
SignTorch_-_COON021_
 10
5.519443185963953
 20
4.033346262692471
 30
0.0
 42
0.0588674579919555
  0
VERTEX
  5
2E2
  8
SignTorch_-_COON021_
 10
5.339349029541015
 20
4.11562593295839
 30
0.0
 42
0.0056394258659418
  0
VERTEX
  5
2E3
  8
SignTorch_-_COON021_
 10
5.260913323180698
 20
4.139860979834657
 30
0.0
 42
0.0131284774157534
  0
SEQEND
  5
2E4
  8
SignTorch_-_COON021_
  0
POLYLINE
  5
4C
  8
SignTorch_-_COON021_
 66
     1
 10
0.0
 20
0.0
 30
0.0
 70
     1
  0
VERTEX
  5
2E5
  8
SignTorch_-_COON021_
 10
5.105099029541015
 20
4.01312593295839
 30
0.0
 42
-0.253747879572773
  0
VERTEX
  5
2E6
  8
SignTorch_-_COON021_
 10
5.314644704058427
 20
3.966060086027207
 30
0.0
 42
-0.3347972597242593
  0
VERTEX
  5
2E7
  8
SignTorch_-_COON021_
 10
5.406958404541015
 20
3.525860307958391
 30
0.0
 42
-0.1994618618422792
  0
VERTEX
  5
2E8
  8
SignTorch_-_COON021_
 10
5.250938807881549
 20
3.384080367346994
 30
0.0
 42
-0.2102627244604087
  0
VERTEX
  5
2E9
  8
SignTorch_-_COON021_
 10
5.050600982666015
 20
3.398252886083391
 30
0.0
 42
-0.3022517279211381
  0
VERTEX
  5
2EA
  8
SignTorch_-_COON021_
 10
4.870239924992389
 20
3.729470934877288
 30
0.0
 42
-0.3110712135543355
  0
SEQEND
  5
2EB
  8
SignTorch_-_COON021_
  0
POLYLINE
  5
4D
  8
SignTorch_-_COON021_
 66
     1
 10
0.0
 20
0.0
 30
0.0
 70
     1
  0
VERTEX
  5
2EC
  8
SignTorch_-_COON021_
 10
5.465849029541015
 20
3.179500932958391
 30
0.0
 42
-0.0865679276273439
  0
VERTEX
  5
2ED
  8
SignTorch_-_COON021_
 10
5.325203737016816
 20
3.048730680979127
 30
0.0
 42
-0.0750354083899165
  0
VERTEX
  5
2EE
  8
SignTorch_-_COON021_
 10
5.123864654541014
 20
2.957235307958391
 30
0.0
 42
-0.0755204674849061
  0
VERTEX
  5
2EF
  8
SignTorch_-_COON021_
 10
5.007036863794224
 20
2.942437743958833
 30
0.0
 42
-0.0606089701930095
  0
VERTEX
  5
2F0
  8
SignTorch_-_COON021_
 10
4.862153717041015
 20
2.963717729833391
 30
0.0
 42
-0.133096430960656
  0
VERTEX
  5
2F1
  8
SignTorch_-_COON021_
 10
4.734249652429713
 20
3.038923992171032
 30
0.0
 42
-0.0828787302740863
  0
VERTEX
  5
2F2
  8
SignTorch_-_COON021_
 10
4.599349029541015
 20
3.232250932958391
 30
0.0
 42
-0.1522598705329897
  0
VERTEX
  5
2F3
  8
SignTorch_-_COON021_
 10
4.589215143529391
 20
3.30330866216908
 30
0.0
 42
-0.4470692064722874
  0
VERTEX
  5
2F4
  8
SignTorch_-_COON021_
 10
4.640942779541016
 20
3.336422807958391
 30
0.0
 42
-0.1428115232976547
  0
VERTEX
  5
2F5
  8
SignTorch_-_COON021_
 10
4.689529252212497
 20
3.306291944402494
 30
0.0
 42
0.0923397765945725
  0
VERTEX
  5
2F6
  8
SignTorch_-_COON021_
 10
4.870755279541015
 20
3.167188432958391
 30
0.0
 42
0.1232444260884123
  0
VERTEX
  5
2F7
  8
SignTorch_-_COON021_
 10
5.096085817759206
 20
3.115558564713521
 30
0.0
 42
0.1393883584702798
  0
VERTEX
  5
2F8
  8
SignTorch_-_COON021_
 10
5.292349029541016
 20
3.175625932958391
 30
0.0
 42
0.1297865719019037
  0
VERTEX
  5
2F9
  8
SignTorch_-_COON021_
 10
5.488030534863505
 20
3.390505611239788
 30
0.0
 42
-0.10755237757262
  0
VERTEX
  5
2FA
  8
SignTorch_-_COON021_
 10
5.534558013916016
 20
3.446329057958391
 30
0.0
 42
-0.1425547032844465
  0
VERTEX
  5
2FB
  8
SignTorch_-_COON021_
 10
5.55627078082748
 20
3.45496346362661
 30
0.0
 42
-0.3658079505465089
  0
VERTEX
  5
2FC
  8
SignTorch_-_COON021_
 10
5.585974029541015
 20
3.434375932958391
 30
0.0
 42
-0.2051407052087798
  0
VERTEX
  5
2FD
  8
SignTorch_-_COON021_
 10
5.571878812586094
 20
3.335308900541872
 30
0.0
 42
-0.0257712140999116
  0
SEQEND
  5
2FE
  8
SignTorch_-_COON021_
  0
POLYLINE
  5
4E
  8
SignTorch_-_COON021_
 66
     1
 10
0.0
 20
0.0
 30
0.0
 70
     1
  0
VERTEX
  5
2FF
  8
SignTorch_-_COON021_
 10
3.629099029541015
 20
1.083125932958391
 30
0.0
 42
0.0003568085997376
  0
VERTEX
  5
300
  8
SignTorch_-_COON021_
 10
3.420591230768965
 20
1.118242264033743
 30
0.0
 42
-0.1687401237909626
  0
VERTEX
  5
301
  8
SignTorch_-_COON021_
 10
3.373692779541015
 20
1.143891557958391
 30
0.0
 42
-0.5310704720986855
  0
VERTEX
  5
302
  8
SignTorch_-_COON021_
 10
3.384243783548371
 20
1.186933814056681
 30
0.0
 42
-0.1034841468348106
  0
VERTEX
  5
303
  8
SignTorch_-_COON021_
 10
3.449349029541015
 20
1.196625932958391
 30
0.0
 42
-0.0076549073270281
  0
VERTEX
  5
304
  8
SignTorch_-_COON021_
 10
3.579228027952205
 20
1.187028572085679
 30
0.0
 42
0.0237913907573634
  0
VERTEX
  5
305
  8
SignTorch_-_COON021_
 10
3.709349029541015
 20
1.181625932958391
 30
0.0
 42
-0.0294831605156454
  0
VERTEX
  5
306
  8
SignTorch_-_COON021_
 10
4.524596148628051
 20
1.138482206944235
 30
0.0
 42
0.0268549672622364
  0
VERTEX
  5
307
  8
SignTorch_-_COON021_
 10
4.728349029541016
 20
1.126625932958391
 30
0.0
 42
0.0103996468963002
  0
VERTEX
  5
308
  8
SignTorch_-_COON021_
 10
4.861890450743767
 20
1.12881242000333
 30
0.0
 42
-0.0380247018939019
  0
VERTEX
  5
309
  8
SignTorch_-_COON021_
 10
4.995349029541015
 20
1.123625932958391
 30
0.0
 42
-0.0185851314211883
  0
VERTEX
  5
30A
  8
SignTorch_-_COON021_
 10
5.152954089621105
 20
1.099480302981527
 30
0.0
 42
0.2378722612760058
  0
VERTEX
  5
30B
  8
SignTorch_-_COON021_
 10
5.19200405883789
 20
1.110619585302141
 30
0.0
 42
0.1673281979991642
  0
VERTEX
  5
30C
  8
SignTorch_-_COON021_
 10
5.217648226088277
 20
1.158206935505312
 30
0.0
 42
-0.1084429697815966
  0
VERTEX
  5
30D
  8
SignTorch_-_COON021_
 10
5.297489654541015
 20
1.358844682958391
 30
0.0
 42
-0.1414751519850205
  0
VERTEX
  5
30E
  8
SignTorch_-_COON021_
 10
5.400238919247199
 20
1.444504548338641
 30
0.0
 42
0.103530756813103
  0
VERTEX
  5
30F
  8
SignTorch_-_COON021_
 10
5.509099029541015
 20
1.522250932958391
 30
0.0
 42
0.0196741614462561
  0
VERTEX
  5
310
  8
SignTorch_-_COON021_
 10
5.607600633907959
 20
1.638029783043729
 30
0.0
 42
0.1325022286817664
  0
VERTEX
  5
311
  8
SignTorch_-_COON021_
 10
5.640763092041015
 20
1.716002886083391
 30
0.0
 42
-0.0407374558135061
  0
VERTEX
  5
312
  8
SignTorch_-_COON021_
 10
5.658921803538877
 20
1.797172111950168
 30
0.0
 42
-0.1420964191129175
  0
VERTEX
  5
313
  8
SignTorch_-_COON021_
 10
5.693106842041014
 20
1.848916948583391
 30
0.0
 42
-0.1096768921493319
  0
VERTEX
  5
314
  8
SignTorch_-_COON021_
 10
5.801237993065838
 20
1.906064667926591
 30
0.0
 42
0.0867792704946302
  0
VERTEX
  5
315
  8
SignTorch_-_COON021_
 10
5.911849029541015
 20
1.958250932958391
 30
0.0
 42
0.2108444524268603
  0
VERTEX
  5
316
  8
SignTorch_-_COON021_
 10
5.982596400782584
 20
2.07594534714158
 30
0.0
 42
-0.0675901556708362
  0
VERTEX
  5
317
  8
SignTorch_-_COON021_
 10
6.017979888916015
 20
2.208629839208391
 30
0.0
 42
-0.2498038973265259
  0
VERTEX
  5
318
  8
SignTorch_-_COON021_
 10
6.106567600435336
 20
2.281095092474032
 30
0.0
 42
0.2874082205324323
  0
VERTEX
  5
319
  8
SignTorch_-_COON021_
 10
6.189858795166015
 20
2.359590776708391
 30
0.0
 42
0.0520190083029168
  0
VERTEX
  5
31A
  8
SignTorch_-_COON021_
 10
6.201119850476211
 20
2.433422892574552
 30
0.0
 42
-0.0296760183706828
  0
VERTEX
  5
31B
  8
SignTorch_-_COON021_
 10
6.232942779541014
 20
2.730407182958391
 30
0.0
 42
-0.0392649230039151
  0
VERTEX
  5
31C
  8
SignTorch_-_COON021_
 10
6.259655893668076
 20
2.837445335416212
 30
0.0
 42
-0.5023268171442277
  0
VERTEX
  5
31D
  8
SignTorch_-_COON021_
 10
6.365802154541015
 20
2.872235307958391
 30
0.0
 42
-0.0795850179869819
  0
VERTEX
  5
31E
  8
SignTorch_-_COON021_
 10
6.41346028414904
 20
2.825732586923098
 30
0.0
 42
-0.0395112994911692
  0
VERTEX
  5
31F
  8
SignTorch_-_COON021_
 10
6.484349029541015
 20
2.712625932958391
 30
0.0
 42
-0.0260781108108484
  0
VERTEX
  5
320
  8
SignTorch_-_COON021_
 10
6.580608327089402
 20
2.502029430671776
 30
0.0
 42
0.0042068005685653
  0
VERTEX
  5
321
  8
SignTorch_-_COON021_
 10
6.742091217041016
 20
2.103518511083391
 30
0.0
 42
0.0331618441091629
  0
VERTEX
  5
322
  8
SignTorch_-_COON021_
 10
6.773658610097366
 20
2.039756892110939
 30
0.0
 42
0.2753514243910706
  0
VERTEX
  5
323
  8
SignTorch_-_COON021_
 10
6.841036529541014
 20
2.002297807958391
 30
0.0
 42
-0.0707000613316912
  0
VERTEX
  5
324
  8
SignTorch_-_COON021_
 10
6.90415972933672
 20
1.995250515787962
 30
0.0
 42
-0.1539935829034626
  0
VERTEX
  5
325
  8
SignTorch_-_COON021_
 10
6.929358795166014
 20
1.979524370458391
 30
0.0
 42
-0.1202737216341612
  0
VERTEX
  5
326
  8
SignTorch_-_COON021_
 10
6.978750807274031
 20
1.881776121960041
 30
0.0
 42
0.0803468198977084
  0
VERTEX
  5
327
  8
SignTorch_-_COON021_
 10
7.055833404541015
 20
1.693625932958391
 30
0.0
 42
0.1859057428998862
  0
VERTEX
  5
328
  8
SignTorch_-_COON021_
 10
7.212155641245788
 20
1.573798542821215
 30
0.0
 42
-0.1175311158730357
  0
VERTEX
  5
329
  8
SignTorch_-_COON021_
 10
7.304257232666015
 20
1.521018511083391
 30
0.0
 42
-0.1691761604138187
  0
VERTEX
  5
32A
  8
SignTorch_-_COON021_
 10
7.32653153467574
 20
1.478363974318015
 30
0.0
 42
-0.2421863894792376
  0
VERTEX
  5
32B
  8
SignTorch_-_COON021_
 10
7.315349029541015
 20
1.445625932958391
 30
0.0
 42
-0.133837001152558
  0
VERTEX
  5
32C
  8
SignTorch_-_COON021_
 10
7.240495188230715
 20
1.404700897090814
 30
0.0
 42
0.219624875943162
  0
VERTEX
  5
32D
  8
SignTorch_-_COON021_
 10
6.97304800415039
 20
1.194280718114641
 30
0.0
 42
-0.0113011570004974
  0
VERTEX
  5
32E
  8
SignTorch_-_COON021_
 10
6.896547507061114
 20
1.052360706164695
 30
0.0
 42
-0.0410944881295992
  0
VERTEX
  5
32F
  8
SignTorch_-_COON021_
 10
6.871505279541015
 20
1.015688432958391
 30
0.0
 42
-0.0248888899545718
  0
VERTEX
  5
330
  8
SignTorch_-_COON021_
 10
6.763456937434326
 20
0.8952061887915347
 30
0.0
 42
0.0887551687603967
  0
VERTEX
  5
331
  8
SignTorch_-_COON021_
 10
6.671576080322266
 20
0.761983354833391
 30
0.0
 42
0.0641979493637185
  0
VERTEX
  5
332
  8
SignTorch_-_COON021_
 10
6.622475327145193
 20
0.6024056272965621
 30
0.0
 42
0.0783384196127639
  0
VERTEX
  5
333
  8
SignTorch_-_COON021_
 10
6.616974029541016
 20
0.2072509329583911
 30
0.0
 42
0.0802280727044232
  0
VERTEX
  5
334
  8
SignTorch_-_COON021_
 10
6.687503220866444
 20
-0.0187084415398073
 30
0.0
 42
0.1137609308029158
  0
VERTEX
  5
335
  8
SignTorch_-_COON021_
 10
6.794349029541015
 20
-0.1483740670416091
 30
0.0
 42
0.009322805908941
  0
VERTEX
  5
336
  8
SignTorch_-_COON021_
 10
6.960464984748636
 20
-0.2711256983173743
 30
0.0
 42
0.0755863462120186
  0
VERTEX
  5
337
  8
SignTorch_-_COON021_
 10
7.160849029541015
 20
-0.3721240670416089
 30
0.0
 42
-0.0677543377474868
  0
VERTEX
  5
338
  8
SignTorch_-_COON021_
 10
7.262472670754684
 20
-0.4213741282377219
 30
0.0
 42
-0.3928758696780735
  0
VERTEX
  5
339
  8
SignTorch_-_COON021_
 10
7.278748931884765
 20
-0.489200238916609
 30
0.0
 42
-0.1799714213620724
  0
VERTEX
  5
33A
  8
SignTorch_-_COON021_
 10
7.253324624090155
 20
-0.5106793790929391
 30
0.0
 42
-0.0421186669451866
  0
VERTEX
  5
33B
  8
SignTorch_-_COON021_
 10
7.120005279541015
 20
-0.546311567041609
 30
0.0
 42
0.0179755708356464
  0
VERTEX
  5
33C
  8
SignTorch_-_COON021_
 10
6.932820056917161
 20
-0.5867813863774058
 30
0.0
 42
-0.0016399085953031
  0
VERTEX
  5
33D
  8
SignTorch_-_COON021_
 10
6.587849029541015
 20
-0.673249067041609
 30
0.0
 42
-0.1023232517119687
  0
VERTEX
  5
33E
  8
SignTorch_-_COON021_
 10
6.336856927708522
 20
-0.6828857886711408
 30
0.0
 42
-0.0997917435559038
  0
VERTEX
  5
33F
  8
SignTorch_-_COON021_
 10
6.096349029541016
 20
-0.5911240670416089
 30
0.0
 42
-0.0013599690058811
  0
VERTEX
  5
340
  8
SignTorch_-_COON021_
 10
5.964563227413914
 20
-0.5073711286617518
 30
0.0
 42
0.125684036586545
  0
VERTEX
  5
341
  8
SignTorch_-_COON021_
 10
5.840349029541016
 20
-0.4663740670416088
 30
0.0
 42
0.1427041919772317
  0
VERTEX
  5
342
  8
SignTorch_-_COON021_
 10
5.773639847029448
 20
-0.4809247422890114
 30
0.0
 42
-0.0192747994502123
  0
VERTEX
  5
343
  8
SignTorch_-_COON021_
 10
5.530349029541015
 20
-0.6013740670416088
 30
0.0
 42
-0.0799176646907664
  0
VERTEX
  5
344
  8
SignTorch_-_COON021_
 10
5.448228143158916
 20
-0.6233665248786434
 30
0.0
 42
-0.3262360047144538
  0
VERTEX
  5
345
  8
SignTorch_-_COON021_
 10
5.396224029541015
 20
-0.5929990670416088
 30
0.0
 42
-0.1830403359406078
  0
VERTEX
  5
346
  8
SignTorch_-_COON021_
 10
5.391364049949169
 20
-0.4948887759062271
 30
0.0
 42
0.1375737759578317
  0
VERTEX
  5
347
  8
SignTorch_-_COON021_
 10
5.395208404541015
 20
-0.3967334420416089
 30
0.0
 42
0.4296567328524755
  0
VERTEX
  5
348
  8
SignTorch_-_COON021_
 10
5.336240347698895
 20
-0.3625862617617233
 30
0.0
 42
-0.145472794215623
  0
VERTEX
  5
349
  8
SignTorch_-_COON021_
 10
5.268099029541015
 20
-0.362436567041609
 30
0.0
 42
-0.3476975337081629
  0
VERTEX
  5
34A
  8
SignTorch_-_COON021_
 10
5.235033627573602
 20
-0.315171141659499
 30
0.0
 42
0.0481157171225111
  0
VERTEX
  5
34B
  8
SignTorch_-_COON021_
 10
5.231099029541014
 20
-0.2098740670416091
 30
0.0
 42
0.3888366793988416
  0
VERTEX
  5
34C
  8
SignTorch_-_COON021_
 10
5.140081028059965
 20
-0.1338930599522299
 30
0.0
 42
0.036605222037636
  0
VERTEX
  5
34D
  8
SignTorch_-_COON021_
 10
5.026677154541014
 20
-0.147483442041609
 30
0.0
 42
0.0372942144277283
  0
VERTEX
  5
34E
  8
SignTorch_-_COON021_
 10
4.684465466719252
 20
-0.2410901975806334
 30
0.0
 42
0.0345324068756487
  0
VERTEX
  5
34F
  8
SignTorch_-_COON021_
 10
4.333224029541015
 20
-0.393999067041609
 30
0.0
 42
0.0065323942334076
  0
VERTEX
  5
350
  8
SignTorch_-_COON021_
 10
4.071996907635232
 20
-0.5342406660613003
 30
0.0
 42
-0.0633421301557684
  0
VERTEX
  5
351
  8
SignTorch_-_COON021_
 10
4.003052154541015
 20
-0.561717817041609
 30
0.0
 42
-0.245113530839565
  0
VERTEX
  5
352
  8
SignTorch_-_COON021_
 10
3.965460824985093
 20
-0.5529946111670627
 30
0.0
 42
-0.3090987964343656
  0
VERTEX
  5
353
  8
SignTorch_-_COON021_
 10
3.957255279541015
 20
-0.522452192041609
 30
0.0
 42
-0.1304148840258012
  0
VERTEX
  5
354
  8
SignTorch_-_COON021_
 10
3.977930570042109
 20
-0.4920010608552764
 30
0.0
 42
-0.034820995443233
  0
VERTEX
  5
355
  8
SignTorch_-_COON021_
 10
4.086349029541015
 20
-0.4103740670416091
 30
0.0
 42
-0.0018449899567439
  0
VERTEX
  5
356
  8
SignTorch_-_COON021_
 10
4.607820300974249
 20
-0.0746221671730603
 30
0.0
 42
-0.0204750958862803
  0
VERTEX
  5
357
  8
SignTorch_-_COON021_
 10
4.862349029541016
 20
0.073625932958391
 30
0.0
 42
0.0052170877946776
  0
VERTEX
  5
358
  8
SignTorch_-_COON021_
 10
5.006816350575269
 20
0.1519679662072581
 30
0.0
 42
0.1299104741679203
  0
VERTEX
  5
359
  8
SignTorch_-_COON021_
 10
5.055349029541015
 20
0.1986259329583911
 30
0.0
 42
0.3386907543215867
  0
VERTEX
  5
35A
  8
SignTorch_-_COON021_
 10
5.04834123370701
 20
0.2642319054786291
 30
0.0
 42
0.1740296241611116
  0
VERTEX
  5
35B
  8
SignTorch_-_COON021_
 10
4.942349029541015
 20
0.3176259329583907
 30
0.0
 42
0.0593715901476436
  0
VERTEX
  5
35C
  8
SignTorch_-_COON021_
 10
4.868122672649256
 20
0.3178808744100862
 30
0.0
 42
0.0138118882711904
  0
VERTEX
  5
35D
  8
SignTorch_-_COON021_
 10
4.553349029541015
 20
0.272625932958391
 30
0.0
 42
0.0390574376305964
  0
VERTEX
  5
35E
  8
SignTorch_-_COON021_
 10
4.328138121302892
 20
0.2154825964981746
 30
0.0
 42
-0.0212773040024717
  0
VERTEX
  5
35F
  8
SignTorch_-_COON021_
 10
4.105099029541015
 20
0.150375932958391
 30
0.0
 42
-0.0657484753040652
  0
VERTEX
  5
360
  8
SignTorch_-_COON021_
 10
4.015566872912869
 20
0.1404730340481032
 30
0.0
 42
-0.5851178216926093
  0
VERTEX
  5
361
  8
SignTorch_-_COON021_
 10
3.99170132446289
 20
0.185126177099016
 30
0.0
 42
-0.1478935348422161
  0
VERTEX
  5
362
  8
SignTorch_-_COON021_
 10
4.038734918920538
 20
0.2254847681815812
 30
0.0
 42
-0.0044672875566031
  0
VERTEX
  5
363
  8
SignTorch_-_COON021_
 10
4.264349029541015
 20
0.322625932958391
 30
0.0
 42
0.0053201053017846
  0
VERTEX
  5
364
  8
SignTorch_-_COON021_
 10
4.400639774892279
 20
0.3815834848095811
 30
0.0
 42
-0.0245768674182292
  0
VERTEX
  5
365
  8
SignTorch_-_COON021_
 10
4.539099029541015
 20
0.435250932958391
 30
0.0
 42
-0.0127737869375734
  0
VERTEX
  5
366
  8
SignTorch_-_COON021_
 10
4.720758666222003
 20
0.4904680728411551
 30
0.0
 42
-0.012732195254455
  0
VERTEX
  5
367
  8
SignTorch_-_COON021_
 10
4.905599029541015
 20
0.5365009329583909
 30
0.0
 42
0.0203937682038588
  0
VERTEX
  5
368
  8
SignTorch_-_COON021_
 10
4.967402469648197
 20
0.5529019419776907
 30
0.0
 42
0.1939769442316715
  0
VERTEX
  5
369
  8
SignTorch_-_COON021_
 10
5.019661529541016
 20
0.5954540579583908
 30
0.0
 42
0.067862913862734
  0
VERTEX
  5
36A
  8
SignTorch_-_COON021_
 10
5.041831871041627
 20
0.6528334625548208
 30
0.0
 42
0.0527141259059651
  0
VERTEX
  5
36B
  8
SignTorch_-_COON021_
 10
5.051911529541015
 20
0.7312353079583911
 30
0.0
 42
0.3018889032167709
  0
VERTEX
  5
36C
  8
SignTorch_-_COON021_
 10
4.986931601032474
 20
0.833999631844272
 30
0.0
 42
0.0591895170936452
  0
VERTEX
  5
36D
  8
SignTorch_-_COON021_
 10
4.804974029541015
 20
0.8907509329583909
 30
0.0
 42
0.0171102957216756
  0
VERTEX
  5
36E
  8
SignTorch_-_COON021_
 10
4.651948868580241
 20
0.9138586220911493
 30
0.0
 42
-0.0258163785297207
  0
VERTEX
  5
36F
  8
SignTorch_-_COON021_
 10
4.499349029541015
 20
0.939625932958391
 30
0.0
 42
0.021323662692806
  0
VERTEX
  5
370
  8
SignTorch_-_COON021_
 10
4.065144877182941
 20
1.016960376584772
 30
0.0
 42
-0.008487226514607
  0
SEQEND
  5
371
  8
SignTorch_-_COON021_
  0
POLYLINE
  5
4F
  8
SignTorch_-_COON021_
 66
     1
 10
0.0
 20
0.0
 30
0.0
 70
     1
  0
VERTEX
  5
372
  8
SignTorch_-_COON021_
 10
1.913349029541015
 20
0.940625932958391
 30
0.0
 42
0.0106188335586683
  0
VERTEX
  5
373
  8
SignTorch_-_COON021_
 10
1.989641780693564
 20
1.010591538275305
 30
0.0
 42
0.3494917621954409
  0
VERTEX
  5
374
  8
SignTorch_-_COON021_
 10
1.995349029541015
 20
1.052625932958391
 30
0.0
 42
0.1491601370203969
  0
VERTEX
  5
375
  8
SignTorch_-_COON021_
 10
1.963746832374612
 20
1.081317755960887
 30
0.0
 42
-0.0613454787055629
  0
VERTEX
  5
376
  8
SignTorch_-_COON021_
 10
1.819849029541015
 20
1.172250932958391
 30
0.0
 42
-0.1570168882924853
  0
VERTEX
  5
377
  8
SignTorch_-_COON021_
 10
1.770145041313406
 20
1.249252237011079
 30
0.0
 42
-0.2102155084657943
  0
VERTEX
  5
378
  8
SignTorch_-_COON021_
 10
1.780755279541016
 20
1.318202104833391
 30
0.0
 42
-0.0946316827401324
  0
VERTEX
  5
379
  8
SignTorch_-_COON021_
 10
1.843875145467352
 20
1.385175667685226
 30
0.0
 42
-0.0463087943087966
  0
VERTEX
  5
37A
  8
SignTorch_-_COON021_
 10
2.088724029541015
 20
1.529875932958391
 30
0.0
 42
-0.0520884520390033
  0
VERTEX
  5
37B
  8
SignTorch_-_COON021_
 10
2.326294215797573
 20
1.613145525665516
 30
0.0
 42
-0.0897903493738173
  0
VERTEX
  5
37C
  8
SignTorch_-_COON021_
 10
2.388822662353516
 20
1.616521684911516
 30
0.0
 42
-0.4897563893567077
  0
VERTEX
  5
37D
  8
SignTorch_-_COON021_
 10
2.411970859915739
 20
1.577445208756336
 30
0.0
 42
-0.0621948932633378
  0
VERTEX
  5
37E
  8
SignTorch_-_COON021_
 10
2.373599029541015
 20
1.507250932958391
 30
0.0
 42
-0.0406491789507444
  0
VERTEX
  5
37F
  8
SignTorch_-_COON021_
 10
2.266677498092996
 20
1.381781186752285
 30
0.0
 42
0.1877947455558601
  0
VERTEX
  5
380
  8
SignTorch_-_COON021_
 10
2.230677154541016
 20
1.300235307958391
 30
0.0
 42
0.2512367170769536
  0
VERTEX
  5
381
  8
SignTorch_-_COON021_
 10
2.247944457886608
 20
1.264288416245663
 30
0.0
 42
-0.1704670851348799
  0
VERTEX
  5
382
  8
SignTorch_-_COON021_
 10
2.338114654541016
 20
1.133164995458391
 30
0.0
 42
-0.0496598715634516
  0
VERTEX
  5
383
  8
SignTorch_-_COON021_
 10
2.361146863413441
 20
0.9952528939660775
 30
0.0
 42
-0.0254197915517203
  0
VERTEX
  5
384
  8
SignTorch_-_COON021_
 10
2.365349029541016
 20
0.7226259329583907
 30
0.0
 42
-0.0954418661502378
  0
VERTEX
  5
385
  8
SignTorch_-_COON021_
 10
2.315224729562596
 20
0.5043496277085476
 30
0.0
 42
0.3693459532499465
  0
VERTEX
  5
386
  8
SignTorch_-_COON021_
 10
2.35036001586914
 20
0.3872836478021409
 30
0.0
 42
0.1301309880965157
  0
VERTEX
  5
387
  8
SignTorch_-_COON021_
 10
2.455378322507787
 20
0.3533187077085874
 30
0.0
 42
-0.1089014076633648
  0
VERTEX
  5
388
  8
SignTorch_-_COON021_
 10
2.561725982666016
 20
0.3237782767083908
 30
0.0
 42
-0.3881074030204652
  0
VERTEX
  5
389
  8
SignTorch_-_COON021_
 10
2.590656246645119
 20
0.2426347650513105
 30
0.0
 42
0.0387085649350613
  0
VERTEX
  5
38A
  8
SignTorch_-_COON021_
 10
2.541349029541015
 20
0.0941259329583909
 30
0.0
 42
0.016842229191898
  0
VERTEX
  5
38B
  8
SignTorch_-_COON021_
 10
2.510710707398047
 20
-0.0499702317870191
 30
0.0
 42
0.3968865671369367
  0
VERTEX
  5
38C
  8
SignTorch_-_COON021_
 10
2.545552154541015
 20
-0.103170942041609
 30
0.0
 42
0.1508322374876728
  0
VERTEX
  5
38D
  8
SignTorch_-_COON021_
 10
2.628920220447312
 20
-0.0978225346715481
 30
0.0
 42
-0.0654209345972268
  0
VERTEX
  5
38E
  8
SignTorch_-_COON021_
 10
2.779664215087891
 20
-0.0620784127447338
 30
0.0
 42
-0.1188609615810548
  0
VERTEX
  5
38F
  8
SignTorch_-_COON021_
 10
2.849719051753694
 20
-0.0715544021598472
 30
0.0
 42
-0.231006290443127
  0
VERTEX
  5
390
  8
SignTorch_-_COON021_
 10
2.900349029541016
 20
-0.1263740670416091
 30
0.0
 42
-0.0871006147125318
  0
VERTEX
  5
391
  8
SignTorch_-_COON021_
 10
2.91135774822713
 20
-0.2193327660701388
 30
0.0
 42
-0.1547884395795607
  0
VERTEX
  5
392
  8
SignTorch_-_COON021_
 10
2.892349029541015
 20
-0.2693740670416088
 30
0.0
 42
-0.068683622283471
  0
VERTEX
  5
393
  8
SignTorch_-_COON021_
 10
2.79957339273993
 20
-0.358169345800272
 30
0.0
 42
0.0961590738535842
  0
VERTEX
  5
394
  8
SignTorch_-_COON021_
 10
2.636552154541016
 20
-0.532202192041609
 30
0.0
 42
0.1665765905571195
  0
VERTEX
  5
395
  8
SignTorch_-_COON021_
 10
2.620045194711746
 20
-0.6024203131339767
 30
0.0
 42
0.3442096467133161
  0
VERTEX
  5
396
  8
SignTorch_-_COON021_
 10
2.646278717041015
 20
-0.6298975045416089
 30
0.0
 42
0.150481547018654
  0
VERTEX
  5
397
  8
SignTorch_-_COON021_
 10
2.704008411261206
 20
-0.6209842402017957
 30
0.0
 42
-0.0297170480751313
  0
VERTEX
  5
398
  8
SignTorch_-_COON021_
 10
2.918661529541016
 20
-0.532124067041609
 30
0.0
 42
-0.0572244699919492
  0
VERTEX
  5
399
  8
SignTorch_-_COON021_
 10
3.130820249092241
 20
-0.4849593754577945
 30
0.0
 42
-0.4135482037835353
  0
VERTEX
  5
39A
  8
SignTorch_-_COON021_
 10
3.227567779541015
 20
-0.563168988916609
 30
0.0
 42
-0.2072973320271509
  0
VERTEX
  5
39B
  8
SignTorch_-_COON021_
 10
3.192437863308793
 20
-0.6758932639500345
 30
0.0
 42
-0.010720565941124
  0
VERTEX
  5
39C
  8
SignTorch_-_COON021_
 10
3.008520904541015
 20
-0.880436567041609
 30
0.0
 42
-0.0411015780985915
  0
VERTEX
  5
39D
  8
SignTorch_-_COON021_
 10
2.868200977325038
 20
-1.007241970664005
 30
0.0
 42
0.0378161606416858
  0
VERTEX
  5
39E
  8
SignTorch_-_COON021_
 10
2.727052154541015
 20
-1.133124067041609
 30
0.0
 42
-0.0095618146997695
  0
VERTEX
  5
39F
  8
SignTorch_-_COON021_
 10
2.51467539707892
 20
-1.345230552897993
 30
0.0
 42
-0.1547727908043419
  0
VERTEX
  5
3A0
  8
SignTorch_-_COON021_
 10
2.396184722900391
 20
-1.403719770166609
 30
0.0
 42
-0.1326461379545376
  0
VERTEX
  5
3A1
  8
SignTorch_-_COON021_
 10
2.337508755447817
 20
-1.397100728707679
 30
0.0
 42
-0.3168718123959039
  0
VERTEX
  5
3A2
  8
SignTorch_-_COON021_
 10
2.307093170166016
 20
-1.350776410791609
 30
0.0
 42
-0.089478907533859
  0
VERTEX
  5
3A3
  8
SignTorch_-_COON021_
 10
2.328332233569803
 20
-1.251722776409358
 30
0.0
 42
0.3347483316416606
  0
VERTEX
  5
3A4
  8
SignTorch_-_COON021_
 10
2.314349029541015
 20
-1.198374067041609
 30
0.0
 42
0.1980160369826671
  0
VERTEX
  5
3A5
  8
SignTorch_-_COON021_
 10
2.288881861184101
 20
-1.191121628739789
 30
0.0
 42
0.044387987703012
  0
VERTEX
  5
3A6
  8
SignTorch_-_COON021_
 10
2.177309967041015
 20
-1.214001020166609
 30
0.0
 42
-0.0401967492486722
  0
VERTEX
  5
3A7
  8
SignTorch_-_COON021_
 10
2.061852760750489
 20
-1.238685616837428
 30
0.0
 42
-0.3452397399385172
  0
VERTEX
  5
3A8
  8
SignTorch_-_COON021_
 10
1.952371490478515
 20
-1.173863568994734
 30
0.0
 42
-0.1272362633881177
  0
VERTEX
  5
3A9
  8
SignTorch_-_COON021_
 10
1.933475719250014
 20
-1.014814127313087
 30
0.0
 42
-0.0700601431335395
  0
VERTEX
  5
3AA
  8
SignTorch_-_COON021_
 10
2.053708404541016
 20
-0.5882803170416089
 30
0.0
 42
0.0470690256014295
  0
VERTEX
  5
3AB
  8
SignTorch_-_COON021_
 10
2.086669134754102
 20
-0.4890099983170468
 30
0.0
 42
0.4217687276432577
  0
VERTEX
  5
3AC
  8
SignTorch_-_COON021_
 10
2.026067779541016
 20
-0.3948271920416089
 30
0.0
 42
0.1062624559140025
  0
VERTEX
  5
3AD
  8
SignTorch_-_COON021_
 10
1.936968340186016
 20
-0.3958026657181095
 30
0.0
 42
-0.1548124595598903
  0
VERTEX
  5
3AE
  8
SignTorch_-_COON021_
 10
1.848181549072266
 20
-0.388281537744734
 30
0.0
 42
-0.3002011333492985
  0
VERTEX
  5
3AF
  8
SignTorch_-_COON021_
 10
1.802470355791426
 20
-0.320862552078502
 30
0.0
 42
-0.0603785598321771
  0
VERTEX
  5
3B0
  8
SignTorch_-_COON021_
 10
1.816099029541016
 20
-0.1952490670416089
 30
0.0
 42
-0.0566411927919639
  0
VERTEX
  5
3B1
  8
SignTorch_-_COON021_
 10
1.916748295708334
 20
0.0876201154597031
 30
0.0
 42
0.1547861194453898
  0
VERTEX
  5
3B2
  8
SignTorch_-_COON021_
 10
1.927849029541016
 20
0.1621415579583911
 30
0.0
 42
0.2749189239527093
  0
VERTEX
  5
3B3
  8
SignTorch_-_COON021_
 10
1.860646681792927
 20
0.2426033726027096
 30
0.0
 42
-0.1266277172270534
  0
VERTEX
  5
3B4
  8
SignTorch_-_COON021_
 10
1.773552154541016
 20
0.3009540579583909
 30
0.0
 42
-0.3186839966572552
  0
VERTEX
  5
3B5
  8
SignTorch_-_COON021_
 10
1.763857790458422
 20
0.3874770642891652
 30
0.0
 42
0.1854704325810459
  0
VERTEX
  5
3B6
  8
SignTorch_-_COON021_
 10
1.775891998291016
 20
0.4737057669427658
 30
0.0
 42
0.2631392628399843
  0
VERTEX
  5
3B7
  8
SignTorch_-_COON021_
 10
1.741739241063426
 20
0.5109055772487937
 30
0.0
 42
-0.0338535886612383
  0
VERTEX
  5
3B8
  8
SignTorch_-_COON021_
 10
1.655552154541015
 20
0.5454442923333909
 30
0.0
 42
-0.1564138534866003
  0
VERTEX
  5
3B9
  8
SignTorch_-_COON021_
 10
1.619822990781312
 20
0.5793446823468762
 30
0.0
 42
-0.1868865529431354
  0
VERTEX
  5
3BA
  8
SignTorch_-_COON021_
 10
1.614349029541016
 20
0.6206259329583909
 30
0.0
 42
-0.1291630456081924
  0
VERTEX
  5
3BB
  8
SignTorch_-_COON021_
 10
1.648270251682782
 20
0.6835259615095702
 30
0.0
 42
-0.0246006251035175
  0
SEQEND
  5
3BC
  8
SignTorch_-_COON021_
  0
POLYLINE
  5
50
  8
SignTorch_-_COON021_
 66
     1
 10
0.0
 20
0.0
 30
0.0
 70
     1
  0
VERTEX
  5
3BD
  8
SignTorch_-_COON021_
 10
4.295349029541016
 20
-1.715374067041609
 30
0.0
 42
0.0005184998709801
  0
VERTEX
  5
3BE
  8
SignTorch_-_COON021_
 10
7.230026524310325
 20
-1.67886380765956
 30
0.0
 42
-0.0007988567139718
  0
VERTEX
  5
3BF
  8
SignTorch_-_COON021_
 10
10.16472402954102
 20
-1.643999067041609
 30
0.0
 42
-0.0062321616840169
  0
VERTEX
  5
3C0
  8
SignTorch_-_COON021_
 10
10.30414180698409
 20
-1.644303312235936
 30
0.0
 42
-0.3784304409997519
  0
VERTEX
  5
3C1
  8
SignTorch_-_COON021_
 10
10.34458145141602
 20
-1.681094770166609
 30
0.0
 42
-0.0960871368799864
  0
VERTEX
  5
3C2
  8
SignTorch_-_COON021_
 10
10.33976896960406
 20
-1.739270462560169
 30
0.0
 42
0.1542545652027759
  0
VERTEX
  5
3C3
  8
SignTorch_-_COON021_
 10
10.34722402954102
 20
-1.972342817041609
 30
0.0
 42
0.149771475729137
  0
VERTEX
  5
3C4
  8
SignTorch_-_COON021_
 10
10.43798329557192
 20
-2.095418705803825
 30
0.0
 42
-0.1699381432108246
  0
VERTEX
  5
3C5
  8
SignTorch_-_COON021_
 10
10.52383340454102
 20
-2.221967817041609
 30
0.0
 42
0.0260101573999713
  0
VERTEX
  5
3C6
  8
SignTorch_-_COON021_
 10
10.5537282439087
 20
-2.314837651169042
 30
0.0
 42
0.2295320316420841
  0
VERTEX
  5
3C7
  8
SignTorch_-_COON021_
 10
10.59034902954102
 20
-2.349374067041609
 30
0.0
 42
0.3908850778361666
  0
VERTEX
  5
3C8
  8
SignTorch_-_COON021_
 10
10.64511458328064
 20
-2.323565959355568
 30
0.0
 42
-0.0405887315014095
  0
VERTEX
  5
3C9
  8
SignTorch_-_COON021_
 10
10.69455215454102
 20
-2.225342817041609
 30
0.0
 42
-0.1016933880363724
  0
VERTEX
  5
3CA
  8
SignTorch_-_COON021_
 10
10.73525703150396
 20
-2.181659839604487
 30
0.0
 42
-0.0381738372050167
  0
VERTEX
  5
3CB
  8
SignTorch_-_COON021_
 10
10.87034902954102
 20
-2.100374067041609
 30
0.0
 42
-0.1117811963296659
  0
VERTEX
  5
3CC
  8
SignTorch_-_COON021_
 10
10.90944518330112
 20
-2.0906936025964
 30
0.0
 42
-0.181229682143435
  0
VERTEX
  5
3CD
  8
SignTorch_-_COON021_
 10
10.93334902954101
 20
-2.099108442041609
 30
0.0
 42
-0.0942855569738088
  0
VERTEX
  5
3CE
  8
SignTorch_-_COON021_
 10
10.96857150997236
 20
-2.142157875441093
 30
0.0
 42
0.0598525762834131
  0
VERTEX
  5
3CF
  8
SignTorch_-_COON021_
 10
11.02834902954102
 20
-2.226374067041609
 30
0.0
 42
-0.0222069632829991
  0
VERTEX
  5
3D0
  8
SignTorch_-_COON021_
 10
11.18144545660934
 20
-2.410952325049922
 30
0.0
 42
0.3516015286879844
  0
VERTEX
  5
3D1
  8
SignTorch_-_COON021_
 10
11.24197402954102
 20
-2.426186567041609
 30
0.0
 42
0.191689514157758
  0
VERTEX
  5
3D2
  8
SignTorch_-_COON021_
 10
11.27231705495584
 20
-2.394413237970601
 30
0.0
 42
-0.1188253254289693
  0
VERTEX
  5
3D3
  8
SignTorch_-_COON021_
 10
11.37423965454102
 20
-2.251686567041609
 30
0.0
 42
0.0465819656736974
  0
VERTEX
  5
3D4
  8
SignTorch_-_COON021_
 10
11.48012851770863
 20
-2.141072895234244
 30
0.0
 42
-0.3612028947058304
  0
VERTEX
  5
3D5
  8
SignTorch_-_COON021_
 10
11.51897793579102
 20
-2.132911176416608
 30
0.0
 42
-0.1533685104794033
  0
VERTEX
  5
3D6
  8
SignTorch_-_COON021_
 10
11.56064634091405
 20
-2.175009541965179
 30
0.0
 42
0.1697962325412357
  0
VERTEX
  5
3D7
  8
SignTorch_-_COON021_
 10
11.64048965454101
 20
-2.250670942041609
 30
0.0
 42
0.0033097866336254
  0
VERTEX
  5
3D8
  8
SignTorch_-_COON021_
 10
11.73097037124396
 20
-2.290590663521733
 30
0.0
 42
-0.1380673036989373
  0
VERTEX
  5
3D9
  8
SignTorch_-_COON021_
 10
11.79334902954102
 20
-2.341374067041609
 30
0.0
 42
0.0103814378426743
  0
VERTEX
  5
3DA
  8
SignTorch_-_COON021_
 10
11.8427374376243
 20
-2.408563791951182
 30
0.0
 42
0.4621441661975991
  0
VERTEX
  5
3DB
  8
SignTorch_-_COON021_
 10
11.91834902954102
 20
-2.412374067041609
 30
0.0
 42
0.1331061538015941
  0
VERTEX
  5
3DC
  8
SignTorch_-_COON021_
 10
11.93829637525778
 20
-2.375037427513229
 30
0.0
 42
-0.1374246960740017
  0
VERTEX
  5
3DD
  8
SignTorch_-_COON021_
 10
12.01934902954102
 20
-2.226374067041609
 30
0.0
 42
-0.0180903135558342
  0
VERTEX
  5
3DE
  8
SignTorch_-_COON021_
 10
12.04844149935704
 20
-2.198594146856821
 30
0.0
 42
0.0389850327180664
  0
VERTEX
  5
3DF
  8
SignTorch_-_COON021_
 10
12.07634902954102
 20
-2.169624067041609
 30
0.0
 42
0.0367039493308224
  0
VERTEX
  5
3E0
  8
SignTorch_-_COON021_
 10
12.12134041589113
 20
-2.105987692941296
 30
0.0
 42
-0.3486026780137434
  0
VERTEX
  5
3E1
  8
SignTorch_-_COON021_
 10
12.16968301391601
 20
-2.087907270166609
 30
0.0
 42
-0.1252372969498378
  0
VERTEX
  5
3E2
  8
SignTorch_-_COON021_
 10
12.22917170609725
 20
-2.125381030068709
 30
0.0
 42
0.0491564699470857
  0
VERTEX
  5
3E3
  8
SignTorch_-_COON021_
 10
12.28234902954101
 20
-2.171374067041609
 30
0.0
 42
0.0207292559636391
  0
VERTEX
  5
3E4
  8
SignTorch_-_COON021_
 10
12.35171165383443
 20
-2.216166205119878
 30
0.0
 42
-0.0486046877037127
  0
VERTEX
  5
3E5
  8
SignTorch_-_COON021_
 10
12.41847402954102
 20
-2.264749067041609
 30
0.0
 42
0.0017833991324219
  0
VERTEX
  5
3E6
  8
SignTorch_-_COON021_
 10
12.52546552086282
 20
-2.359088894448498
 30
0.0
 42
0.2484505867460493
  0
VERTEX
  5
3E7
  8
SignTorch_-_COON021_
 10
12.56102090454102
 20
-2.367490277979109
 30
0.0
 42
0.2181064218870326
  0
VERTEX
  5
3E8
  8
SignTorch_-_COON021_
 10
12.57872771704925
 20
-2.35303941718478
 30
0.0
 42
0.0544800734999632
  0
VERTEX
  5
3E9
  8
SignTorch_-_COON021_
 10
12.60859902954101
 20
-2.270686567041609
 30
0.0
 42
-0.0210051314890539
  0
VERTEX
  5
3EA
  8
SignTorch_-_COON021_
 10
12.62422278574067
 20
-2.216580764722305
 30
0.0
 42
-0.1078688066887613
  0
VERTEX
  5
3EB
  8
SignTorch_-_COON021_
 10
12.65939590454101
 20
-2.157639692041609
 30
0.0
 42
0.0144418705607818
  0
VERTEX
  5
3EC
  8
SignTorch_-_COON021_
 10
12.73794981227013
 20
-2.068804133255784
 30
0.0
 42
0.076023148288381
  0
VERTEX
  5
3ED
  8
SignTorch_-_COON021_
 10
12.81214004516601
 20
-1.945989301416609
 30
0.0
 42
0.0295314574786701
  0
VERTEX
  5
3EE
  8
SignTorch_-_COON021_
 10
12.84977247579659
 20
-1.837051818668052
 30
0.0
 42
-0.3956221802834284
  0
VERTEX
  5
3EF
  8
SignTorch_-_COON021_
 10
12.92092324829102
 20
-1.794036176416609
 30
0.0
 42
-0.1166269304568917
  0
VERTEX
  5
3F0
  8
SignTorch_-_COON021_
 10
13.01192935682052
 20
-1.837089837931563
 30
0.0
 42
0.0582450816927812
  0
VERTEX
  5
3F1
  8
SignTorch_-_COON021_
 10
13.09734902954102
 20
-1.890374067041609
 30
0.0
 42
-0.0712948038151524
  0
VERTEX
  5
3F2
  8
SignTorch_-_COON021_
 10
13.1535915743826
 20
-1.927522269708583
 30
0.0
 42
-0.1121419625237274
  0
VERTEX
  5
3F3
  8
SignTorch_-_COON021_
 10
13.17872402954102
 20
-1.962624067041609
 30
0.0
 42
0.0372028965206643
  0
VERTEX
  5
3F4
  8
SignTorch_-_COON021_
 10
13.21149363090671
 20
-2.026754430398582
 30
0.0
 42
0.4069384057862876
  0
VERTEX
  5
3F5
  8
SignTorch_-_COON021_
 10
13.28359902954102
 20
-2.045249067041609
 30
0.0
 42
0.3052376976171459
  0
VERTEX
  5
3F6
  8
SignTorch_-_COON021_
 10
13.32218398071667
 20
-1.966664516782675
 30
0.0
 42
-0.2248212175503462
  0
VERTEX
  5
3F7
  8
SignTorch_-_COON021_
 10
13.34857363891601
 20
-1.883190473291609
 30
0.0
 42
-0.1846365598395389
  0
VERTEX
  5
3F8
  8
SignTorch_-_COON021_
 10
13.41199846575532
 20
-1.85199172087655
 30
0.0
 42
-0.0091252887641737
  0
VERTEX
  5
3F9
  8
SignTorch_-_COON021_
 10
13.68983340454102
 20
-1.831467817041609
 30
0.0
 42
-0.0070910749619824
  0
VERTEX
  5
3FA
  8
SignTorch_-_COON021_
 10
14.04818345486438
 20
-1.816657766634623
 30
0.0
 42
-0.0060666630042167
  0
VERTEX
  5
3FB
  8
SignTorch_-_COON021_
 10
14.46734902954102
 20
-1.810374067041609
 30
0.0
 42
-0.0099294556398214
  0
VERTEX
  5
3FC
  8
SignTorch_-_COON021_
 10
14.75646007807686
 20
-1.815289887098482
 30
0.0
 42
0.1675817469934353
  0
VERTEX
  5
3FD
  8
SignTorch_-_COON021_
 10
14.96334902954102
 20
-1.752374067041609
 30
0.0
 42
-0.0400068081804192
  0
VERTEX
  5
3FE
  8
SignTorch_-_COON021_
 10
15.05424430119108
 20
-1.696979727544599
 30
0.0
 42
-0.0707279697541333
  0
VERTEX
  5
3FF
  8
SignTorch_-_COON021_
 10
15.11147402954102
 20
-1.677624067041609
 30
0.0
 42
-0.0647251271225144
  0
VERTEX
  5
400
  8
SignTorch_-_COON021_
 10
15.27048359112493
 20
-1.668767264590196
 30
0.0
 42
0.0682459076881029
  0
VERTEX
  5
401
  8
SignTorch_-_COON021_
 10
15.42942715454102
 20
-1.658795942041609
 30
0.0
 42
0.1261673464047153
  0
VERTEX
  5
402
  8
SignTorch_-_COON021_
 10
15.47905967013687
 20
-1.634824265628466
 30
0.0
 42
0.2033195078067749
  0
VERTEX
  5
403
  8
SignTorch_-_COON021_
 10
15.49489590454102
 20
-1.603545942041609
 30
0.0
 42
0.1427855389053102
  0
VERTEX
  5
404
  8
SignTorch_-_COON021_
 10
15.48689693352501
 20
-1.567117335569349
 30
0.0
 42
0.0381968454967114
  0
VERTEX
  5
405
  8
SignTorch_-_COON021_
 10
15.41234902954102
 20
-1.452374067041609
 30
0.0
 42
0.0068718888442856
  0
VERTEX
  5
406
  8
SignTorch_-_COON021_
 10
15.24951597328886
 20
-1.245255791399463
 30
0.0
 42
-0.0779861912099678
  0
VERTEX
  5
407
  8
SignTorch_-_COON021_
 10
15.21647402954102
 20
-1.188124067041609
 30
0.0
 42
-0.5216406274159883
  0
VERTEX
  5
408
  8
SignTorch_-_COON021_
 10
15.24013365141111
 20
-1.153010839178583
 30
0.0
 42
0.0048709397800198
  0
VERTEX
  5
409
  8
SignTorch_-_COON021_
 10
15.39447402954102
 20
-1.148999067041609
 30
0.0
 42
0.0716359173813191
  0
VERTEX
  5
40A
  8
SignTorch_-_COON021_
 10
15.45919434981683
 20
-1.137305068133442
 30
0.0
 42
0.4299872192942756
  0
VERTEX
  5
40B
  8
SignTorch_-_COON021_
 10
15.49171817016602
 20
-1.067649457666609
 30
0.0
 42
0.1335531791814273
  0
VERTEX
  5
40C
  8
SignTorch_-_COON021_
 10
15.43635194236685
 20
-0.9934220244161494
 30
0.0
 42
0.0079998648532017
  0
VERTEX
  5
40D
  8
SignTorch_-_COON021_
 10
15.26734902954101
 20
-0.8653740670416089
 30
0.0
 42
-0.0302900998427908
  0
VERTEX
  5
40E
  8
SignTorch_-_COON021_
 10
15.14354749066199
 20
-0.7625802028941692
 30
0.0
 42
-0.0224853192098515
  0
VERTEX
  5
40F
  8
SignTorch_-_COON021_
 10
14.99234902954102
 20
-0.6073740670416091
 30
0.0
 42
-0.106144001923682
  0
VERTEX
  5
410
  8
SignTorch_-_COON021_
 10
14.96095169243841
 20
-0.5520071603731124
 30
0.0
 42
-0.3123889864522916
  0
VERTEX
  5
411
  8
SignTorch_-_COON021_
 10
14.96791543579101
 20
-0.5295908639166089
 30
0.0
 42
-0.1521298480290005
  0
VERTEX
  5
412
  8
SignTorch_-_COON021_
 10
15.01598918290904
 20
-0.51138147276222
 30
0.0
 42
0.0330158579345289
  0
VERTEX
  5
413
  8
SignTorch_-_COON021_
 10
15.21884902954101
 20
-0.485655317041609
 30
0.0
 42
0.0894520372979567
  0
VERTEX
  5
414
  8
SignTorch_-_COON021_
 10
15.28538223144697
 20
-0.4598050629030029
 30
0.0
 42
0.4149912415169015
  0
VERTEX
  5
415
  8
SignTorch_-_COON021_
 10
15.29671133422852
 20
-0.4124995553228593
 30
0.0
 42
0.0940832738919107
  0
VERTEX
  5
416
  8
SignTorch_-_COON021_
 10
15.25985900289076
 20
-0.3720810136332787
 30
0.0
 42
-0.0107647458822629
  0
VERTEX
  5
417
  8
SignTorch_-_COON021_
 10
15.08822402954102
 20
-0.2373740670416092
 30
0.0
 42
-0.0213069135374622
  0
VERTEX
  5
418
  8
SignTorch_-_COON021_
 10
14.94694392435563
 20
-0.1110499151380231
 30
0.0
 42
-0.1402250339361495
  0
VERTEX
  5
419
  8
SignTorch_-_COON021_
 10
14.93236074829102
 20
-0.085579145166609
 30
0.0
 42
-0.3525500482730282
  0
VERTEX
  5
41A
  8
SignTorch_-_COON021_
 10
14.94475832277488
 20
-0.0590065295268165
 30
0.0
 42
0.0175287810796275
  0
VERTEX
  5
41B
  8
SignTorch_-_COON021_
 10
15.04394277954101
 20
-0.005920942041609
 30
0.0
 42
0.1586813083270622
  0
VERTEX
  5
41C
  8
SignTorch_-_COON021_
 10
15.08910040241196
 20
0.0445820002035009
 30
0.0
 42
0.2811282795699614
  0
VERTEX
  5
41D
  8
SignTorch_-_COON021_
 10
15.07900723266602
 20
0.1198681204583907
 30
0.0
 42
0.0968395937450829
  0
VERTEX
  5
41E
  8
SignTorch_-_COON021_
 10
15.00793560361143
 20
0.1792876720739242
 30
0.0
 42
-0.0298327724167608
  0
VERTEX
  5
41F
  8
SignTorch_-_COON021_
 10
14.86256777954102
 20
0.2710165579583909
 30
0.0
 42
-0.0152683328683505
  0
VERTEX
  5
420
  8
SignTorch_-_COON021_
 10
14.5467676103598
 20
0.5126342492669846
 30
0.0
 42
-0.0804616861049465
  0
VERTEX
  5
421
  8
SignTorch_-_COON021_
 10
14.49632901000977
 20
0.5693835013177659
 30
0.0
 42
-0.4022896279141733
  0
VERTEX
  5
422
  8
SignTorch_-_COON021_
 10
14.50686485134806
 20
0.6216419742508719
 30
0.0
 42
-0.0665533001374177
  0
VERTEX
  5
423
  8
SignTorch_-_COON021_
 10
14.58472793579101
 20
0.6615849173333913
 30
0.0
 42
-0.0579202476204119
  0
VERTEX
  5
424
  8
SignTorch_-_COON021_
 10
14.79803415195313
 20
0.7104870163604798
 30
0.0
 42
0.0438318732474449
  0
VERTEX
  5
425
  8
SignTorch_-_COON021_
 10
15.01263027954102
 20
0.753375932958391
 30
0.0
 42
0.1335394599101018
  0
VERTEX
  5
426
  8
SignTorch_-_COON021_
 10
15.06231642968103
 20
0.7838644487647478
 30
0.0
 42
0.2664663359227539
  0
VERTEX
  5
427
  8
SignTorch_-_COON021_
 10
15.06944668579102
 20
0.8137665579583909
 30
0.0
 42
0.1853430974586499
  0
VERTEX
  5
428
  8
SignTorch_-_COON021_
 10
15.02577180869376
 20
0.8708291029669628
 30
0.0
 42
0.0456977940560102
  0
VERTEX
  5
429
  8
SignTorch_-_COON021_
 10
14.77272402954102
 20
0.996094682958391
 30
0.0
 42
0.0603576894216881
  0
VERTEX
  5
42A
  8
SignTorch_-_COON021_
 10
14.59292943108822
 20
1.041575114020701
 30
0.0
 42
-0.0692471063819845
  0
VERTEX
  5
42B
  8
SignTorch_-_COON021_
 10
14.41396817016602
 20
1.090231401708391
 30
0.0
 42
-0.0703344571620709
  0
VERTEX
  5
42C
  8
SignTorch_-_COON021_
 10
14.36632079874295
 20
1.119063794870448
 30
0.0
 42
-0.4365094571705642
  0
VERTEX
  5
42D
  8
SignTorch_-_COON021_
 10
14.36418667602539
 20
1.152880327489641
 30
0.0
 42
-0.162425388925933
  0
VERTEX
  5
42E
  8
SignTorch_-_COON021_
 10
14.42100420020034
 20
1.183085896119644
 30
0.0
 42
-0.0320535881001941
  0
VERTEX
  5
42F
  8
SignTorch_-_COON021_
 10
14.73734902954102
 20
1.215625932958391
 30
0.0
 42
-0.0251571997687279
  0
VERTEX
  5
430
  8
SignTorch_-_COON021_
 10
14.86414803804487
 20
1.214118605867868
 30
0.0
 42
-0.0216951819890548
  0
VERTEX
  5
431
  8
SignTorch_-_COON021_
 10
15.01034902954102
 20
1.198625932958391
 30
0.0
 42
0.045727797189052
  0
VERTEX
  5
432
  8
SignTorch_-_COON021_
 10
15.12063041983038
 20
1.192270458338598
 30
0.0
 42
0.4809870272967573
  0
VERTEX
  5
433
  8
SignTorch_-_COON021_
 10
15.15491152954101
 20
1.238282182958391
 30
0.0
 42
0.1523115470719168
  0
VERTEX
  5
434
  8
SignTorch_-_COON021_
 10
15.12276430564092
 20
1.289715735788663
 30
0.0
 42
0.0310052997063909
  0
VERTEX
  5
435
  8
SignTorch_-_COON021_
 10
14.89034902954101
 20
1.465625932958391
 30
0.0
 42
-0.0851842214569853
  0
VERTEX
  5
436
  8
SignTorch_-_COON021_
 10
14.84996231409587
 20
1.503694275755846
 30
0.0
 42
-0.2569778913583463
  0
VERTEX
  5
437
  8
SignTorch_-_COON021_
 10
14.84720840454101
 20
1.522969682958391
 30
0.0
 42
-0.2073181455349804
  0
VERTEX
  5
438
  8
SignTorch_-_COON021_
 10
14.88380219624608
 20
1.560707870345007
 30
0.0
 42
0.082679911366053
  0
VERTEX
  5
439
  8
SignTorch_-_COON021_
 10
14.96642715454101
 20
1.612157182958391
 30
0.0
 42
0.4617088636468438
  0
VERTEX
  5
43A
  8
SignTorch_-_COON021_
 10
14.96519438633776
 20
1.688165183027696
 30
0.0
 42
0.0726776544151078
  0
VERTEX
  5
43B
  8
SignTorch_-_COON021_
 10
14.85809902954102
 20
1.753000932958391
 30
0.0
 42
0.0201450559817478
  0
VERTEX
  5
43C
  8
SignTorch_-_COON021_
 10
14.73561132491701
 20
1.798965485782466
 30
0.0
 42
0.0054788857705562
  0
VERTEX
  5
43D
  8
SignTorch_-_COON021_
 10
14.27734902954101
 20
1.944625932958391
 30
0.0
 42
-0.0354270814146342
  0
VERTEX
  5
43E
  8
SignTorch_-_COON021_
 10
14.20360405975804
 20
1.973027314976198
 30
0.0
 42
-0.4990391040765566
  0
VERTEX
  5
43F
  8
SignTorch_-_COON021_
 10
14.19572402954102
 20
2.01062593295839
 30
0.0
 42
-0.1136889565021383
  0
VERTEX
  5
440
  8
SignTorch_-_COON021_
 10
14.23804717555184
 20
2.041175975552346
 30
0.0
 42
-0.0356388051704114
  0
VERTEX
  5
441
  8
SignTorch_-_COON021_
 10
14.39389004516602
 20
2.094133745458391
 30
0.0
 42
-0.0730677965646677
  0
VERTEX
  5
442
  8
SignTorch_-_COON021_
 10
14.65883591961407
 20
2.123516329053367
 30
0.0
 42
0.1355403834965496
  0
VERTEX
  5
443
  8
SignTorch_-_COON021_
 10
14.72376113891601
 20
2.138993120458391
 30
0.0
 42
0.4712867966130382
  0
VERTEX
  5
444
  8
SignTorch_-_COON021_
 10
14.7363855713433
 20
2.205891414250875
 30
0.0
 42
-0.3305200418048316
  0
VERTEX
  5
445
  8
SignTorch_-_COON021_
 10
14.73258340454102
 20
2.273864214208391
 30
0.0
 42
-0.1048828175861598
  0
VERTEX
  5
446
  8
SignTorch_-_COON021_
 10
14.78845389256991
 20
2.329050815617301
 30
0.0
 42
0.2383161971915126
  0
VERTEX
  5
447
  8
SignTorch_-_COON021_
 10
14.82833340454101
 20
2.39670210483339
 30
0.0
 42
0.343942971338819
  0
VERTEX
  5
448
  8
SignTorch_-_COON021_
 10
14.78828405791053
 20
2.455520734081098
 30
0.0
 42
0.0149171749183301
  0
VERTEX
  5
449
  8
SignTorch_-_COON021_
 10
14.52772402954102
 20
2.530625932958391
 30
0.0
 42
-0.0025023242947173
  0
VERTEX
  5
44A
  8
SignTorch_-_COON021_
 10
14.31591504145976
 20
2.586022583673082
 30
0.0
 42
-0.1936335545369985
  0
VERTEX
  5
44B
  8
SignTorch_-_COON021_
 10
14.27145840454101
 20
2.619354448583391
 30
0.0
 42
-0.4270311092660938
  0
VERTEX
  5
44C
  8
SignTorch_-_COON021_
 10
14.27919014407173
 20
2.648156091544154
 30
0.0
 42
-0.0140748384089526
  0
VERTEX
  5
44D
  8
SignTorch_-_COON021_
 10
14.37809902954102
 20
2.698797807958391
 30
0.0
 42
0.0873627906478808
  0
VERTEX
  5
44E
  8
SignTorch_-_COON021_
 10
14.54950786673476
 20
2.820997327345574
 30
0.0
 42
0.3664144781029963
  0
VERTEX
  5
44F
  8
SignTorch_-_COON021_
 10
14.56059268188477
 20
2.969055376317765
 30
0.0
 42
0.2013703655806403
  0
VERTEX
  5
450
  8
SignTorch_-_COON021_
 10
14.49412261845139
 20
3.009412127789645
 30
0.0
 42
0.0267459250333947
  0
VERTEX
  5
451
  8
SignTorch_-_COON021_
 10
14.35090762329101
 20
3.023022417333391
 30
0.0
 42
-0.1056832731210144
  0
VERTEX
  5
452
  8
SignTorch_-_COON021_
 10
14.21240152350714
 20
3.05866266724576
 30
0.0
 42
-0.3325505243527436
  0
VERTEX
  5
453
  8
SignTorch_-_COON021_
 10
14.18996011352539
 20
3.10325337436464
 30
0.0
 42
-0.2106367866790096
  0
VERTEX
  5
454
  8
SignTorch_-_COON021_
 10
14.22402379992423
 20
3.154015135911465
 30
0.0
 42
0.1129067609237052
  0
VERTEX
  5
455
  8
SignTorch_-_COON021_
 10
14.30383340454102
 20
3.234469682958391
 30
0.0
 42
0.3482582885506072
  0
VERTEX
  5
456
  8
SignTorch_-_COON021_
 10
14.28944959219476
 20
3.360395037170389
 30
0.0
 42
0.0761948501133864
  0
VERTEX
  5
457
  8
SignTorch_-_COON021_
 10
14.13837637329102
 20
3.471641557958391
 30
0.0
 42
0.0295882836797005
  0
VERTEX
  5
458
  8
SignTorch_-_COON021_
 10
14.01795417997601
 20
3.525920596109842
 30
0.0
 42
-0.1268124113624197
  0
VERTEX
  5
459
  8
SignTorch_-_COON021_
 10
13.95981777954102
 20
3.56712593295839
 30
0.0
 42
-0.5261204411422384
  0
VERTEX
  5
45A
  8
SignTorch_-_COON021_
 10
13.97264891104482
 20
3.61408693390129
 30
0.0
 42
-0.0112578131611043
  0
VERTEX
  5
45B
  8
SignTorch_-_COON021_
 10
14.08452090454102
 20
3.65028218295839
 30
0.0
 42
-0.0209133139464474
  0
VERTEX
  5
45C
  8
SignTorch_-_COON021_
 10
14.26189406593803
 20
3.695304244084045
 30
0.0
 42
-0.0254725273206327
  0
VERTEX
  5
45D
  8
SignTorch_-_COON021_
 10
14.41034902954102
 20
3.71862593295839
 30
0.0
 42
0.0715587426835894
  0
VERTEX
  5
45E
  8
SignTorch_-_COON021_
 10
14.47299558207323
 20
3.734472993793253
 30
0.0
 42
0.2033850582415105
  0
VERTEX
  5
45F
  8
SignTorch_-_COON021_
 10
14.51105215454101
 20
3.773030229833391
 30
0.0
 42
0.07667045706477
  0
VERTEX
  5
460
  8
SignTorch_-_COON021_
 10
14.53009190975423
 20
3.856400506891329
 30
0.0
 42
0.0633035238416548
  0
VERTEX
  5
461
  8
SignTorch_-_COON021_
 10
14.52441348266602
 20
3.959625932958391
 30
0.0
 42
0.1758803652338215
  0
VERTEX
  5
462
  8
SignTorch_-_COON021_
 10
14.44559983309907
 20
4.094265052905305
 30
0.0
 42
0.0181761979589558
  0
VERTEX
  5
463
  8
SignTorch_-_COON021_
 10
14.32795840454101
 20
4.18493843295839
 30
0.0
 42
-0.0212249939317665
  0
VERTEX
  5
464
  8
SignTorch_-_COON021_
 10
14.24850890914686
 20
4.246950577301388
 30
0.0
 42
-0.2994247862496845
  0
VERTEX
  5
465
  8
SignTorch_-_COON021_
 10
14.22049551391602
 20
4.343014604833391
 30
0.0
 42
0.0266136323535513
  0
VERTEX
  5
466
  8
SignTorch_-_COON021_
 10
14.23488109171743
 20
4.400576203307966
 30
0.0
 42
0.1790242303214279
  0
VERTEX
  5
467
  8
SignTorch_-_COON021_
 10
14.22398770141602
 20
4.46697554233339
 30
0.0
 42
0.1457897479479103
  0
VERTEX
  5
468
  8
SignTorch_-_COON021_
 10
14.13394500803491
 20
4.553305591144799
 30
0.0
 42
0.0213468741745302
  0
VERTEX
  5
469
  8
SignTorch_-_COON021_
 10
13.92997402954102
 20
4.647375932958391
 30
0.0
 42
-0.0068761286579313
  0
VERTEX
  5
46A
  8
SignTorch_-_COON021_
 10
13.81863865600602
 20
4.694866875108433
 30
0.0
 42
-0.4218195965909466
  0
VERTEX
  5
46B
  8
SignTorch_-_COON021_
 10
13.80737661743164
 20
4.725199663427141
 30
0.0
 42
-0.2521125574743031
  0
VERTEX
  5
46C
  8
SignTorch_-_COON021_
 10
13.8387439079305
 20
4.748263938187448
 30
0.0
 42
0.0288912301853551
  0
VERTEX
  5
46D
  8
SignTorch_-_COON021_
 10
13.98855215454101
 20
4.778297807958391
 30
0.0
 42
0.0385085858068808
  0
VERTEX
  5
46E
  8
SignTorch_-_COON021_
 10
14.18011456286082
 20
4.844470674097595
 30
0.0
 42
0.3634586698982087
  0
VERTEX
  5
46F
  8
SignTorch_-_COON021_
 10
14.22722402954101
 20
4.938610307958391
 30
0.0
 42
0.2157317011188692
  0
VERTEX
  5
470
  8
SignTorch_-_COON021_
 10
14.15274921521617
 20
5.034928575970953
 30
0.0
 42
-0.0047133159793283
  0
VERTEX
  5
471
  8
SignTorch_-_COON021_
 10
14.02197402954102
 20
5.105875932958391
 30
0.0
 42
-0.1853410652346455
  0
VERTEX
  5
472
  8
SignTorch_-_COON021_
 10
13.92921364049272
 20
5.216504890617094
 30
0.0
 42
0.2346247083704397
  0
VERTEX
  5
473
  8
SignTorch_-_COON021_
 10
13.87384902954101
 20
5.271125932958391
 30
0.0
 42
0.0383721113358972
  0
VERTEX
  5
474
  8
SignTorch_-_COON021_
 10
13.8053481164005
 20
5.287963216868826
 30
0.0
 42
-0.0225433920363343
  0
VERTEX
  5
475
  8
SignTorch_-_COON021_
 10
13.73634902954102
 20
5.302625932958391
 30
0.0
 42
-0.0007245000565559
  0
VERTEX
  5
476
  8
SignTorch_-_COON021_
 10
13.5356495133174
 20
5.355140305798426
 30
0.0
 42
0.0190962003326998
  0
VERTEX
  5
477
  8
SignTorch_-_COON021_
 10
13.37634902954102
 20
5.390625932958391
 30
0.0
 42
-0.0792616353693333
  0
VERTEX
  5
478
  8
SignTorch_-_COON021_
 10
13.32799949898704
 20
5.407684636121718
 30
0.0
 42
-0.4852882464510668
  0
VERTEX
  5
479
  8
SignTorch_-_COON021_
 10
13.32263027954102
 20
5.439000932958391
 30
0.0
 42
-0.1121403228801088
  0
VERTEX
  5
47A
  8
SignTorch_-_COON021_
 10
13.36441418245434
 20
5.468430893095387
 30
0.0
 42
0.1539342551062898
  0
VERTEX
  5
47B
  8
SignTorch_-_COON021_
 10
13.52122402954102
 20
5.599375932958391
 30
0.0
 42
0.164400117519499
  0
VERTEX
  5
47C
  8
SignTorch_-_COON021_
 10
13.53582873935979
 20
5.658117338187051
 30
0.0
 42
0.2022830289208308
  0
VERTEX
  5
47D
  8
SignTorch_-_COON021_
 10
13.51274380493164
 20
5.702310503270891
 30
0.0
 42
0.13040949155634
  0
VERTEX
  5
47E
  8
SignTorch_-_COON021_
 10
13.44226868724957
 20
5.734707202112387
 30
0.0
 42
-0.0146187783153844
  0
VERTEX
  5
47F
  8
SignTorch_-_COON021_
 10
13.13984902954101
 20
5.796250932958389
 30
0.0
 42
-0.0287519597239732
  0
VERTEX
  5
480
  8
SignTorch_-_COON021_
 10
12.89690041071228
 20
5.868085360746427
 30
0.0
 42
-0.1680507269712145
  0
VERTEX
  5
481
  8
SignTorch_-_COON021_
 10
12.86221621704101
 20
5.896016557958391
 30
0.0
 42
-0.365119074726085
  0
VERTEX
  5
482
  8
SignTorch_-_COON021_
 10
12.86947392000797
 20
5.947399836670207
 30
0.0
 42
0.00015174295302
  0
VERTEX
  5
483
  8
SignTorch_-_COON021_
 10
12.97491152954101
 20
6.041875932958391
 30
0.0
 42
0.0809060581544041
  0
VERTEX
  5
484
  8
SignTorch_-_COON021_
 10
13.04278456900401
 20
6.126081896728208
 30
0.0
 42
0.2684563126217669
  0
VERTEX
  5
485
  8
SignTorch_-_COON021_
 10
13.04252090454101
 20
6.16079780795839
 30
0.0
 42
0.1454408063659421
  0
VERTEX
  5
486
  8
SignTorch_-_COON021_
 10
13.01150285687442
 20
6.189682546430917
 30
0.0
 42
-0.3723904040997105
  0
VERTEX
  5
487
  8
SignTorch_-_COON021_
 10
12.98134902954101
 20
6.261625932958392
 30
0.0
 42
0.0005256787338049
  0
VERTEX
  5
488
  8
SignTorch_-_COON021_
 10
13.01949763455944
 20
6.378692393030239
 30
0.0
 42
0.2373945684442087
  0
VERTEX
  5
489
  8
SignTorch_-_COON021_
 10
13.00337588500977
 20
6.483803911474014
 30
0.0
 42
0.2297089086468692
  0
VERTEX
  5
48A
  8
SignTorch_-_COON021_
 10
12.94029198338933
 20
6.518337360743917
 30
0.0
 42
0.0375266185570922
  0
VERTEX
  5
48B
  8
SignTorch_-_COON021_
 10
12.81738027954102
 20
6.51517280795839
 30
0.0
 42
-0.0177331988204409
  0
VERTEX
  5
48C
  8
SignTorch_-_COON021_
 10
12.65120130513467
 20
6.504306501182555
 30
0.0
 42
-0.1127887882492443
  0
VERTEX
  5
48D
  8
SignTorch_-_COON021_
 10
12.55834902954102
 20
6.52262593295839
 30
0.0
 42
-0.4896965108061594
  0
VERTEX
  5
48E
  8
SignTorch_-_COON021_
 10
12.54504610697111
 20
6.57683812481076
 30
0.0
 42
0.0457847850654205
  0
VERTEX
  5
48F
  8
SignTorch_-_COON021_
 10
12.59984317016602
 20
6.66073140170839
 30
0.0
 42
0.1519820498705639
  0
VERTEX
  5
490
  8
SignTorch_-_COON021_
 10
12.61051463667265
 20
6.717615953480964
 30
0.0
 42
0.2309512221227694
  0
VERTEX
  5
491
  8
SignTorch_-_COON021_
 10
12.58934902954102
 20
6.750625932958391
 30
0.0
 42
0.213154986209172
  0
VERTEX
  5
492
  8
SignTorch_-_COON021_
 10
12.51737733835142
 20
6.759791914060884
 30
0.0
 42
-0.094853844207658
  0
VERTEX
  5
493
  8
SignTorch_-_COON021_
 10
12.38372402954102
 20
6.74581343295839
 30
0.0
 42
-0.0249661273723999
  0
VERTEX
  5
494
  8
SignTorch_-_COON021_
 10
12.31391197316086
 20
6.755285420743326
 30
0.0
 42
0.0491491620697001
  0
VERTEX
  5
495
  8
SignTorch_-_COON021_
 10
12.24372402954102
 20
6.761375932958391
 30
0.0
 42
-0.0916688974957436
  0
VERTEX
  5
496
  8
SignTorch_-_COON021_
 10
12.18530738658074
 20
6.771473626509822
 30
0.0
 42
-0.3510666269074133
  0
VERTEX
  5
497
  8
SignTorch_-_COON021_
 10
12.17641934204102
 20
6.786248979833392
 30
0.0
 42
-0.221741962768058
  0
VERTEX
  5
498
  8
SignTorch_-_COON021_
 10
12.19820876322678
 20
6.820234755104567
 30
0.0
 42
0.0728869439799174
  0
VERTEX
  5
499
  8
SignTorch_-_COON021_
 10
12.31966152954102
 20
6.92457905795839
 30
0.0
 42
0.1076693863075307
  0
VERTEX
  5
49A
  8
SignTorch_-_COON021_
 10
12.35034720631901
 20
6.98061636341595
 30
0.0
 42
0.4430132447872536
  0
VERTEX
  5
49B
  8
SignTorch_-_COON021_
 10
12.32625527954102
 20
7.02012593295839
 30
0.0
 42
0.0886177126154326
  0
VERTEX
  5
49C
  8
SignTorch_-_COON021_
 10
12.26800758338675
 20
7.02084765359884
 30
0.0
 42
-0.4700132400230767
  0
VERTEX
  5
49D
  8
SignTorch_-_COON021_
 10
12.25644277954102
 20
7.030875932958391
 30
0.0
 42
-0.1685276952818532
  0
VERTEX
  5
49E
  8
SignTorch_-_COON021_
 10
12.27102558791309
 20
7.070066640036384
 30
0.0
 42
0.0435569440723545
  0
VERTEX
  5
49F
  8
SignTorch_-_COON021_
 10
12.36531777954102
 20
7.206985307958391
 30
0.0
 42
0.1018830801546545
  0
VERTEX
  5
4A0
  8
SignTorch_-_COON021_
 10
12.52098990736633
 20
7.688058637340304
 30
0.0
 42
-0.0305286522552224
  0
VERTEX
  5
4A1
  8
SignTorch_-_COON021_
 10
12.56734902954102
 20
7.95662593295839
 30
0.0
 42
-0.0467891645002098
  0
VERTEX
  5
4A2
  8
SignTorch_-_COON021_
 10
12.67129048634946
 20
8.264616280515451
 30
0.0
 42
0.0626962327431453
  0
VERTEX
  5
4A3
  8
SignTorch_-_COON021_
 10
12.72197402954102
 20
8.432157182958392
 30
0.0
 42
-0.0114048698452066
  0
VERTEX
  5
4A4
  8
SignTorch_-_COON021_
 10
12.74450900003076
 20
8.54848948492905
 30
0.0
 42
-0.0471701023481096
  0
VERTEX
  5
4A5
  8
SignTorch_-_COON021_
 10
12.75322402954102
 20
8.575844682958392
 30
0.0
 42
-0.0458133919525306
  0
VERTEX
  5
4A6
  8
SignTorch_-_COON021_
 10
12.85245987399927
 20
8.760001704295606
 30
0.0
 42
0.1360429953676893
  0
VERTEX
  5
4A7
  8
SignTorch_-_COON021_
 10
12.91734902954101
 20
8.958875932958392
 30
0.0
 42
0.0413512664251027
  0
VERTEX
  5
4A8
  8
SignTorch_-_COON021_
 10
12.91480507158551
 20
9.026340965417512
 30
0.0
 42
-0.1016251364603959
  0
VERTEX
  5
4A9
  8
SignTorch_-_COON021_
 10
12.92034902954101
 20
9.09362593295839
 30
0.0
 42
-0.0575617406285695
  0
VERTEX
  5
4AA
  8
SignTorch_-_COON021_
 10
12.97698309647442
 20
9.227667423327444
 30
0.0
 42
0.097566161732216
  0
VERTEX
  5
4AB
  8
SignTorch_-_COON021_
 10
13.02279043579102
 20
9.365784136083391
 30
0.0
 42
0.4550665585725081
  0
VERTEX
  5
4AC
  8
SignTorch_-_COON021_
 10
12.92205607052125
 20
9.478711224227245
 30
0.0
 42
-0.1839648834224109
  0
VERTEX
  5
4AD
  8
SignTorch_-_COON021_
 10
12.88567715454101
 20
9.49207905795839
 30
0.0
 42
-0.3034450331376884
  0
VERTEX
  5
4AE
  8
SignTorch_-_COON021_
 10
12.87582314563262
 20
9.528308989698807
 30
0.0
 42
-0.0091619460787694
  0
VERTEX
  5
4AF
  8
SignTorch_-_COON021_
 10
12.92434902954102
 20
9.664625932958389
 30
0.0
 42
0.0366302938883344
  0
VERTEX
  5
4B0
  8
SignTorch_-_COON021_
 10
13.01129568311661
 20
9.9591183590347
 30
0.0
 42
0.0208868919543705
  0
VERTEX
  5
4B1
  8
SignTorch_-_COON021_
 10
13.10342715454101
 20
10.48918843295839
 30
0.0
 42
0.0806269035378341
  0
VERTEX
  5
4B2
  8
SignTorch_-_COON021_
 10
13.08986479310998
 20
10.93251568538867
 30
0.0
 42
0.1107822428307069
  0
VERTEX
  5
4B3
  8
SignTorch_-_COON021_
 10
12.95981387329102
 20
11.22998335483339
 30
0.0
 42
0.1157749992324159
  0
VERTEX
  5
4B4
  8
SignTorch_-_COON021_
 10
12.78837270473983
 20
11.37658488875879
 30
0.0
 42
0.1198010368869376
  0
VERTEX
  5
4B5
  8
SignTorch_-_COON021_
 10
12.57634902954102
 20
11.42812593295839
 30
0.0
 42
0.0818718953019841
  0
VERTEX
  5
4B6
  8
SignTorch_-_COON021_
 10
12.39331633834159
 20
11.39795321837262
 30
0.0
 42
0.0168940946223877
  0
VERTEX
  5
4B7
  8
SignTorch_-_COON021_
 10
12.11938027954102
 20
11.29467280795839
 30
0.0
 42
-0.0147702128297064
  0
VERTEX
  5
4B8
  8
SignTorch_-_COON021_
 10
11.90613083735106
 20
11.21323669563429
 30
0.0
 42
0.0343578142828828
  0
VERTEX
  5
4B9
  8
SignTorch_-_COON021_
 10
11.51634902954102
 20
11.04662593295839
 30
0.0
 42
-0.0213074948398139
  0
VERTEX
  5
4BA
  8
SignTorch_-_COON021_
 10
11.27012218045161
 20
10.93369490563724
 30
0.0
 42
0.0346661014051978
  0
VERTEX
  5
4BB
  8
SignTorch_-_COON021_
 10
10.29769277954102
 20
10.45587593295839
 30
0.0
 42
0.0595661247407925
  0
VERTEX
  5
4BC
  8
SignTorch_-_COON021_
 10
10.03008253820204
 20
10.25453540416769
 30
0.0
 42
0.0481539427173981
  0
VERTEX
  5
4BD
  8
SignTorch_-_COON021_
 10
9.588724029541016
 20
9.741625932958389
 30
0.0
 42
0.0273121399811237
  0
VERTEX
  5
4BE
  8
SignTorch_-_COON021_
 10
9.414069186076373
 20
9.462870030964282
 30
0.0
 42
0.0429682526992393
  0
VERTEX
  5
4BF
  8
SignTorch_-_COON021_
 10
9.328864654541015
 20
9.271672807958392
 30
0.0
 42
-0.0149805914377898
  0
VERTEX
  5
4C0
  8
SignTorch_-_COON021_
 10
9.289116494210754
 20
9.167118951607115
 30
0.0
 42
-0.1163435559345791
  0
VERTEX
  5
4C1
  8
SignTorch_-_COON021_
 10
9.217349029541015
 20
9.067625932958391
 30
0.0
 42
0.0362962650688304
  0
VERTEX
  5
4C2
  8
SignTorch_-_COON021_
 10
9.108132282620504
 20
8.958099963003919
 30
0.0
 42
-0.238343925761039
  0
VERTEX
  5
4C3
  8
SignTorch_-_COON021_
 10
9.071822906494141
 20
8.943114702489641
 30
0.0
 42
-0.1784147259962121
  0
VERTEX
  5
4C4
  8
SignTorch_-_COON021_
 10
9.017117692196374
 20
8.96818086162837
 30
0.0
 42
0.0263504124847115
  0
VERTEX
  5
4C5
  8
SignTorch_-_COON021_
 10
8.934224029541015
 20
9.042375932958391
 30
0.0
 42
0.0792904702006294
  0
VERTEX
  5
4C6
  8
SignTorch_-_COON021_
 10
8.827628787190125
 20
9.103286978055689
 30
0.0
 42
0.199629295863662
  0
VERTEX
  5
4C7
  8
SignTorch_-_COON021_
 10
8.717349029541015
 20
9.099625932958391
 30
0.0
 42
0.0173274887377802
  0
VERTEX
  5
4C8
  8
SignTorch_-_COON021_
 10
8.630635226841974
 20
9.056456638574698
 30
0.0
 42
-0.2282596142813915
  0
VERTEX
  5
4C9
  8
SignTorch_-_COON021_
 10
8.561243560791016
 20
9.05314155795839
 30
0.0
 42
-0.0679234424661108
  0
VERTEX
  5
4CA
  8
SignTorch_-_COON021_
 10
8.504972523613185
 20
9.086622526877584
 30
0.0
 42
0.1971768444618713
  0
VERTEX
  5
4CB
  8
SignTorch_-_COON021_
 10
8.442099029541016
 20
9.10490718295839
 30
0.0
 42
-0.1128181412660335
  0
VERTEX
  5
4CC
  8
SignTorch_-_COON021_
 10
8.38354381029425
 20
9.111869001082976
 30
0.0
 42
-0.194991191400843
  0
VERTEX
  5
4CD
  8
SignTorch_-_COON021_
 10
8.357442779541017
 20
9.135141557958391
 30
0.0
 42
-0.1085736352519388
  0
VERTEX
  5
4CE
  8
SignTorch_-_COON021_
 10
8.336292287188149
 20
9.22113296043673
 30
0.0
 42
0.1824428774751985
  0
VERTEX
  5
4CF
  8
SignTorch_-_COON021_
 10
8.302970123291015
 20
9.303178667333391
 30
0.0
 42
0.4027678962495878
  0
VERTEX
  5
4D0
  8
SignTorch_-_COON021_
 10
8.218853584712235
 20
9.308089078530596
 30
0.0
 42
0.0683461317024757
  0
VERTEX
  5
4D1
  8
SignTorch_-_COON021_
 10
8.127849029541016
 20
9.205750932958392
 30
0.0
 42
-0.0068030605532704
  0
VERTEX
  5
4D2
  8
SignTorch_-_COON021_
 10
8.0725833381704
 20
9.125653826528737
 30
0.0
 42
-0.5989370510841533
  0
VERTEX
  5
4D3
  8
SignTorch_-_COON021_
 10
8.033349029541016
 20
9.130625932958392
 30
0.0
 42
-0.1015100618577807
  0
VERTEX
  5
4D4
  8
SignTorch_-_COON021_
 10
8.024628440247879
 20
9.18360630300048
 30
0.0
 42
0.0676496911123332
  0
VERTEX
  5
4D5
  8
SignTorch_-_COON021_
 10
8.004071685791015
 20
9.39729585483339
 30
0.0
 42
0.0675937137294066
  0
VERTEX
  5
4D6
  8
SignTorch_-_COON021_
 10
7.977813802139655
 20
9.465810429631448
 30
0.0
 42
0.5242084342948834
  0
VERTEX
  5
4D7
  8
SignTorch_-_COON021_
 10
7.897239654541016
 20
9.474235307958388
 30
0.0
 42
0.1015761212775751
  0
VERTEX
  5
4D8
  8
SignTorch_-_COON021_
 10
7.854461161674246
 20
9.397192183016546
 30
0.0
 42
-0.0664135180182911
  0
VERTEX
  5
4D9
  8
SignTorch_-_COON021_
 10
7.785208404541017
 20
9.24895405795839
 30
0.0
 42
-0.0206400468820633
  0
VERTEX
  5
4DA
  8
SignTorch_-_COON021_
 10
7.694923744582658
 20
9.120037142858628
 30
0.0
 42
0.0233896029030895
  0
VERTEX
  5
4DB
  8
SignTorch_-_COON021_
 10
7.605349029541014
 20
8.99062593295839
 30
0.0
 42
-0.005174487156794
  0
VERTEX
  5
4DC
  8
SignTorch_-_COON021_
 10
7.552111950844816
 20
8.907391202154846
 30
0.0
 42
-0.4895969530209534
  0
VERTEX
  5
4DD
  8
SignTorch_-_COON021_
 10
7.513349029541017
 20
8.90425093295839
 30
0.0
 42
-0.1212857892868257
  0
VERTEX
  5
4DE
  8
SignTorch_-_COON021_
 10
7.495822418799799
 20
8.936359253082385
 30
0.0
 42
0.0755181029904128
  0
VERTEX
  5
4DF
  8
SignTorch_-_COON021_
 10
7.437677154541016
 20
9.070500932958389
 30
0.0
 42
0.0614780511118639
  0
VERTEX
  5
4E0
  8
SignTorch_-_COON021_
 10
7.287897804245318
 20
9.254750291255855
 30
0.0
 42
0.241621131986047
  0
VERTEX
  5
4E1
  8
SignTorch_-_COON021_
 10
7.226878326416015
 20
9.27304390170839
 30
0.0
 42
0.1161434945604383
  0
VERTEX
  5
4E2
  8
SignTorch_-_COON021_
 10
7.130504406731609
 20
9.230682429405288
 30
0.0
 42
-0.0946108331748182
  0
VERTEX
  5
4E3
  8
SignTorch_-_COON021_
 10
6.955052154541015
 20
9.14446968295839
 30
0.0
 42
-0.1533843112267375
  0
VERTEX
  5
4E4
  8
SignTorch_-_COON021_
 10
6.832267497135772
 20
9.148932782314958
 30
0.0
 42
-0.0169916188349699
  0
VERTEX
  5
4E5
  8
SignTorch_-_COON021_
 10
6.724786529541015
 20
9.191204057958391
 30
0.0
 42
0.0647767209226588
  0
VERTEX
  5
4E6
  8
SignTorch_-_COON021_
 10
6.623609316505242
 20
9.220223146234666
 30
0.0
 42
0.1120383538255445
  0
VERTEX
  5
4E7
  8
SignTorch_-_COON021_
 10
6.562411529541015
 20
9.215735307958392
 30
0.0
 42
0.1150601176394088
  0
VERTEX
  5
4E8
  8
SignTorch_-_COON021_
 10
6.446469994787995
 20
9.148508219039313
 30
0.0
 42
-0.0405954489121543
  0
VERTEX
  5
4E9
  8
SignTorch_-_COON021_
 10
6.341706451416014
 20
9.06492280795839
 30
0.0
 42
-0.1195533512686061
  0
VERTEX
  5
4EA
  8
SignTorch_-_COON021_
 10
6.252611084896477
 20
9.031965212246224
 30
0.0
 42
-0.1612938160543372
  0
VERTEX
  5
4EB
  8
SignTorch_-_COON021_
 10
6.182854888916014
 20
9.046360307958388
 30
0.0
 42
-0.0716457864338599
  0
VERTEX
  5
4EC
  8
SignTorch_-_COON021_
 10
6.136854467343043
 20
9.08253454654127
 30
0.0
 42
-0.0527199949181294
  0
VERTEX
  5
4ED
  8
SignTorch_-_COON021_
 10
6.088458404541015
 20
9.14540718295839
 30
0.0
 42
0.0739115611656576
  0
VERTEX
  5
4EE
  8
SignTorch_-_COON021_
 10
6.047948784313279
 20
9.193674775303164
 30
0.0
 42
0.2711381910684972
  0
VERTEX
  5
4EF
  8
SignTorch_-_COON021_
 10
6.00228286743164
 20
9.20271626498964
 30
0.0
 42
0.1586780487820387
  0
VERTEX
  5
4F0
  8
SignTorch_-_COON021_
 10
5.917589785038285
 20
9.138490731931753
 30
0.0
 42
-0.0739528350522826
  0
VERTEX
  5
4F1
  8
SignTorch_-_COON021_
 10
5.844758209228516
 20
9.06107368686464
 30
0.0
 42
-0.4174661865356953
  0
VERTEX
  5
4F2
  8
SignTorch_-_COON021_
 10
5.768151597066393
 20
9.070518703763838
 30
0.0
 42
0.0398585728712634
  0
VERTEX
  5
4F3
  8
SignTorch_-_COON021_
 10
5.692036529541015
 20
9.15440718295839
 30
0.0
 42
0.3356905679373007
  0
VERTEX
  5
4F4
  8
SignTorch_-_COON021_
 10
5.573971678849948
 20
9.167032026692754
 30
0.0
 42
0.0177564510423165
  0
VERTEX
  5
4F5
  8
SignTorch_-_COON021_
 10
5.470349029541015
 20
9.099625932958391
 30
0.0
 42
-0.014566888469953
  0
VERTEX
  5
4F6
  8
SignTorch_-_COON021_
 10
5.233109825549992
 20
8.943140645617184
 30
0.0
 42
-0.1367961115444457
  0
VERTEX
  5
4F7
  8
SignTorch_-_COON021_
 10
4.944940826416016
 20
8.859631792333392
 30
0.0
 42
-0.0642022691033328
  0
VERTEX
  5
4F8
  8
SignTorch_-_COON021_
 10
4.893770025628891
 20
8.865701669675241
 30
0.0
 42
-0.0767221394461289
  0
VERTEX
  5
4F9
  8
SignTorch_-_COON021_
 10
4.853974029541015
 20
8.88250093295839
 30
0.0
 42
0.0378220673420431
  0
VERTEX
  5
4FA
  8
SignTorch_-_COON021_
 10
4.801086699292408
 20
8.909831772856196
 30
0.0
 42
0.1449296461876529
  0
VERTEX
  5
4FB
  8
SignTorch_-_COON021_
 10
4.785349029541015
 20
8.91162593295839
 30
0.0
 42
0.2099865736094124
  0
VERTEX
  5
4FC
  8
SignTorch_-_COON021_
 10
4.69064487332289
 20
8.848449191812476
 30
0.0
 42
-0.3023839856132665
  0
VERTEX
  5
4FD
  8
SignTorch_-_COON021_
 10
4.586464263916016
 20
8.802551714208391
 30
0.0
 42
-0.1422004158587208
  0
VERTEX
  5
4FE
  8
SignTorch_-_COON021_
 10
4.499462215941778
 20
8.845096748117642
 30
0.0
 42
0.1359815766688152
  0
VERTEX
  5
4FF
  8
SignTorch_-_COON021_
 10
4.412985748291016
 20
8.888700151708388
 30
0.0
 42
0.3307510078490641
  0
VERTEX
  5
500
  8
SignTorch_-_COON021_
 10
4.33987686760479
 20
8.854091090855091
 30
0.0
 42
-0.0056899518453535
  0
VERTEX
  5
501
  8
SignTorch_-_COON021_
 10
4.293015045166015
 20
8.76855366733339
 30
0.0
 42
-0.1130568135604196
  0
VERTEX
  5
502
  8
SignTorch_-_COON021_
 10
4.258043313533487
 20
8.730078163927717
 30
0.0
 42
-0.2169779858303245
  0
VERTEX
  5
503
  8
SignTorch_-_COON021_
 10
4.230489654541016
 20
8.72504780795839
 30
0.0
 42
-0.1824634607995402
  0
VERTEX
  5
504
  8
SignTorch_-_COON021_
 10
4.161376652091323
 20
8.773117084251714
 30
0.0
 42
0.1679642202695115
  0
VERTEX
  5
505
  8
SignTorch_-_COON021_
 10
4.09364321899414
 20
8.823111528661514
 30
0.0
 42
0.409900811370829
  0
VERTEX
  5
506
  8
SignTorch_-_COON021_
 10
4.041606198910142
 20
8.79635026706471
 30
0.0
 42
0.03207808578167
  0
VERTEX
  5
507
  8
SignTorch_-_COON021_
 10
4.011349029541015
 20
8.679625932958391
 30
0.0
 42
-0.060980634102289
  0
VERTEX
  5
508
  8
SignTorch_-_COON021_
 10
3.895630683672784
 20
8.320001411625816
 30
0.0
 42
-0.1355314788624602
  0
VERTEX
  5
509
  8
SignTorch_-_COON021_
 10
3.845618560791015
 20
8.26093062045839
 30
0.0
 42
-0.3047726137571117
  0
VERTEX
  5
50A
  8
SignTorch_-_COON021_
 10
3.779381566837132
 20
8.260455594974477
 30
0.0
 42
-0.0456465980213109
  0
VERTEX
  5
50B
  8
SignTorch_-_COON021_
 10
3.689349029541015
 20
8.33262593295839
 30
0.0
 42
-0.0427745284308137
  0
VERTEX
  5
50C
  8
SignTorch_-_COON021_
 10
3.124142487651157
 20
8.979199652965395
 30
0.0
 42
0.0469625319069277
  0
VERTEX
  5
50D
  8
SignTorch_-_COON021_
 10
2.816899810791016
 20
9.32479976108339
 30
0.0
 42
0.0574955522518425
  0
VERTEX
  5
50E
  8
SignTorch_-_COON021_
 10
2.417768100776533
 20
9.619104816275271
 30
0.0
 42
0.0849061545411025
  0
VERTEX
  5
50F
  8
SignTorch_-_COON021_
 10
1.827200592041015
 20
9.83541108920839
 30
0.0
 42
0.0403497566910874
  0
VERTEX
  5
510
  8
SignTorch_-_COON021_
 10
1.344507170455913
 20
9.88434518307711
 30
0.0
 42
-0.0673048555084175
  0
VERTEX
  5
511
  8
SignTorch_-_COON021_
 10
1.086349029541016
 20
9.92462593295839
 30
0.0
 42
0.0263649716438047
  0
VERTEX
  5
512
  8
SignTorch_-_COON021_
 10
0.7247726345248451
 20
10.01175904010157
 30
0.0
 42
0.0614868258653173
  0
VERTEX
  5
513
  8
SignTorch_-_COON021_
 10
0.5650990295410155
 20
10.02150093295839
 30
0.0
 42
-0.0202970825686265
  0
VERTEX
  5
514
  8
SignTorch_-_COON021_
 10
0.4118940566567613
 20
10.01823798886639
 30
0.0
 42
0.1167478520571711
  0
VERTEX
  5
515
  8
SignTorch_-_COON021_
 10
0.3310990295410156
 20
10.00075093295839
 30
0.0
 42
0.0547212880261836
  0
VERTEX
  5
516
  8
SignTorch_-_COON021_
 10
0.2378320745708834
 20
9.94293435823318
 30
0.0
 42
-0.1756805813227348
  0
VERTEX
  5
517
  8
SignTorch_-_COON021_
 10
0.0447103576660156
 20
9.87969624545839
 30
0.0
 42
0.0259641195783781
  0
VERTEX
  5
518
  8
SignTorch_-_COON021_
 10
-0.1030256946297512
 20
9.87665942498409
 30
0.0
 42
0.0789148658164514
  0
VERTEX
  5
519
  8
SignTorch_-_COON021_
 10
-0.2180630798339843
 20
9.849727495458392
 30
0.0
 42
0.0688869775639311
  0
VERTEX
  5
51A
  8
SignTorch_-_COON021_
 10
-0.3460198103002247
 20
9.77560680320675
 30
0.0
 42
0.1747142778152352
  0
VERTEX
  5
51B
  8
SignTorch_-_COON021_
 10
-0.4706822204589844
 20
9.577766557958391
 30
0.0
 42
0.0599903392684809
  0
VERTEX
  5
51C
  8
SignTorch_-_COON021_
 10
-0.4966776094975163
 20
9.309210532345327
 30
0.0
 42
0.0524672713457272
  0
VERTEX
  5
51D
  8
SignTorch_-_COON021_
 10
-0.4572759704589844
 20
9.00350093295839
 30
0.0
 42
0.010853536432314
  0
VERTEX
  5
51E
  8
SignTorch_-_COON021_
 10
-0.4117312895884769
 20
8.82858464116576
 30
0.0
 42
-0.0173439541837719
  0
VERTEX
  5
51F
  8
SignTorch_-_COON021_
 10
-0.2386509704589844
 20
8.126625932958392
 30
0.0
 42
0.027552408243501
  0
VERTEX
  5
520
  8
SignTorch_-_COON021_
 10
-0.1992986319281734
 20
7.979967924979107
 30
0.0
 42
0.0397943852594027
  0
VERTEX
  5
521
  8
SignTorch_-_COON021_
 10
-0.1586353454589843
 20
7.88292280795839
 30
0.0
 42
0.0337224552909371
  0
VERTEX
  5
522
  8
SignTorch_-_COON021_
 10
-0.0113311631129947
 20
7.639262233331475
 30
0.0
 42
0.0238140171488775
  0
VERTEX
  5
523
  8
SignTorch_-_COON021_
 10
0.2353490295410156
 20
7.320625932958388
 30
0.0
 42
-0.0217676716662461
  0
VERTEX
  5
524
  8
SignTorch_-_COON021_
 10
0.3154241696645721
 20
7.218062517547897
 30
0.0
 42
-0.0014846646050239
  0
VERTEX
  5
525
  8
SignTorch_-_COON021_
 10
0.4843490295410156
 20
6.979625932958389
 30
0.0
 42
-0.0130535079613074
  0
VERTEX
  5
526
  8
SignTorch_-_COON021_
 10
0.5943208376778539
 20
6.814421215768023
 30
0.0
 42
-0.0319039735032974
  0
VERTEX
  5
527
  8
SignTorch_-_COON021_
 10
0.6330990295410156
 20
6.743000932958389
 30
0.0
 42
-0.0178269144203456
  0
VERTEX
  5
528
  8
SignTorch_-_COON021_
 10
0.735236882189465
 20
6.500057867279557
 30
0.0
 42
-0.0605771664566809
  0
VERTEX
  5
529
  8
SignTorch_-_COON021_
 10
0.7825990295410155
 20
6.30762593295839
 30
0.0
 42
0.15547925196114
  0
VERTEX
  5
52A
  8
SignTorch_-_COON021_
 10
0.8343858169258167
 20
6.194351788430768
 30
0.0
 42
-0.0451512857981803
  0
VERTEX
  5
52B
  8
SignTorch_-_COON021_
 10
0.9094701232910155
 20
6.094977495458389
 30
0.0
 42
-0.2527805910112122
  0
VERTEX
  5
52C
  8
SignTorch_-_COON021_
 10
0.9174757980789721
 20
5.965237988730656
 30
0.0
 42
0.2867966033881506
  0
VERTEX
  5
52D
  8
SignTorch_-_COON021_
 10
0.9336869201660155
 20
5.836266557958391
 30
0.0
 42
0.0666330941645968
  0
VERTEX
  5
52E
  8
SignTorch_-_COON021_
 10
1.021475336859236
 20
5.753810413949459
 30
0.0
 42
0.0615182448659243
  0
VERTEX
  5
52F
  8
SignTorch_-_COON021_
 10
1.323349029541016
 20
5.589625932958391
 30
0.0
 42
0.0266153843762469
  0
VERTEX
  5
530
  8
SignTorch_-_COON021_
 10
1.427837213028679
 20
5.55476337219267
 30
0.0
 42
-0.276208420295313
  0
VERTEX
  5
531
  8
SignTorch_-_COON021_
 10
1.469315826416016
 20
5.51138374545839
 30
0.0
 42
-0.115948875703373
  0
VERTEX
  5
532
  8
SignTorch_-_COON021_
 10
1.468909524142639
 20
5.452034008546151
 30
0.0
 42
-0.0596540922413108
  0
VERTEX
  5
533
  8
SignTorch_-_COON021_
 10
1.429001373291015
 20
5.344997026708391
 30
0.0
 42
-0.2548742054535673
  0
VERTEX
  5
534
  8
SignTorch_-_COON021_
 10
1.319299849271644
 20
5.270648168258989
 30
0.0
 42
0.0089336935854458
  0
VERTEX
  5
535
  8
SignTorch_-_COON021_
 10
1.153538482666016
 20
5.251606401708391
 30
0.0
 42
0.0857090446957731
  0
VERTEX
  5
536
  8
SignTorch_-_COON021_
 10
1.070815365345192
 20
5.225723147422082
 30
0.0
 42
0.4317703343856794
  0
VERTEX
  5
537
  8
SignTorch_-_COON021_
 10
1.054918609619141
 20
5.17072505405214
 30
0.0
 42
0.0786514578517095
  0
VERTEX
  5
538
  8
SignTorch_-_COON021_
 10
1.106200159251449
 20
5.108690633270925
 30
0.0
 42
-0.3284009624962376
  0
VERTEX
  5
539
  8
SignTorch_-_COON021_
 10
1.115474029541015
 20
5.065844682958391
 30
0.0
 42
-0.068557908887521
  0
VERTEX
  5
53A
  8
SignTorch_-_COON021_
 10
1.089595033222668
 20
5.024415557958378
 30
0.0
 42
0.1525521073077669
  0
VERTEX
  5
53B
  8
SignTorch_-_COON021_
 10
1.070911529541015
 20
4.979282182958391
 30
0.0
 42
0.0126435570063596
  0
VERTEX
  5
53C
  8
SignTorch_-_COON021_
 10
1.066775465448174
 20
4.915175034825951
 30
0.0
 42
-0.24960410507706
  0
VERTEX
  5
53D
  8
SignTorch_-_COON021_
 10
1.042005279541016
 20
4.872739214208391
 30
0.0
 42
-0.128779511022344
  0
VERTEX
  5
53E
  8
SignTorch_-_COON021_
 10
0.9809084902742901
 20
4.854035054117928
 30
0.0
 42
0.0468047511941462
  0
VERTEX
  5
53F
  8
SignTorch_-_COON021_
 10
0.7283021545410158
 20
4.81986030795839
 30
0.0
 42
0.0771927343450619
  0
VERTEX
  5
540
  8
SignTorch_-_COON021_
 10
0.6709203936766804
 20
4.796801909195276
 30
0.0
 42
0.3866896576574843
  0
VERTEX
  5
541
  8
SignTorch_-_COON021_
 10
0.6590834045410157
 20
4.75807905795839
 30
0.0
 42
0.1626836820840402
  0
VERTEX
  5
542
  8
SignTorch_-_COON021_
 10
0.7249993103078958
 20
4.689257572333823
 30
0.0
 42
-0.0481102778588691
  0
VERTEX
  5
543
  8
SignTorch_-_COON021_
 10
0.8726009826660157
 20
4.592434526708391
 30
0.0
 42
-0.1416201700834102
  0
VERTEX
  5
544
  8
SignTorch_-_COON021_
 10
0.8951768421731565
 20
4.560319552258513
 30
0.0
 42
-0.2309144796978511
  0
VERTEX
  5
545
  8
SignTorch_-_COON021_
 10
0.8921383361816406
 20
4.53564497592714
 30
0.0
 42
-0.1355717034137921
  0
VERTEX
  5
546
  8
SignTorch_-_COON021_
 10
0.8303199764278661
 20
4.480888257514927
 30
0.0
 42
0.041740950575292
  0
VERTEX
  5
547
  8
SignTorch_-_COON021_
 10
0.6989115295410155
 20
4.402327104833391
 30
0.0
 42
0.0503699293052991
  0
VERTEX
  5
548
  8
SignTorch_-_COON021_
 10
0.6414793849924871
 20
4.351657990633922
 30
0.0
 42
0.0712328542447501
  0
VERTEX
  5
549
  8
SignTorch_-_COON021_
 10
0.6105990295410155
 20
4.307000932958391
 30
0.0
 42
-0.0055164622375137
  0
VERTEX
  5
54A
  8
SignTorch_-_COON021_
 10
0.5724100069171002
 20
4.232523985485218
 30
0.0
 42
-0.117254778104362
  0
VERTEX
  5
54B
  8
SignTorch_-_COON021_
 10
0.5203490295410156
 20
4.172959917333391
 30
0.0
 42
-0.0598629958360978
  0
VERTEX
  5
54C
  8
SignTorch_-_COON021_
 10
0.4436538979835321
 20
4.131112225548009
 30
0.0
 42
0.0732623904923077
  0
VERTEX
  5
54D
  8
SignTorch_-_COON021_
 10
0.3033490295410157
 20
4.049625932958391
 30
0.0
 42
-0.1388381102579551
  0
VERTEX
  5
54E
  8
SignTorch_-_COON021_
 10
0.0868886795761497
 20
3.958994985236873
 30
0.0
 42
0.0364492784343602
  0
VERTEX
  5
54F
  8
SignTorch_-_COON021_
 10
-0.1434009704589844
 20
3.913875932958391
 30
0.0
 42
0.1169190821745059
  0
VERTEX
  5
550
  8
SignTorch_-_COON021_
 10
-0.2234983331400003
 20
3.870210026636608
 30
0.0
 42
0.2876312070312165
  0
VERTEX
  5
551
  8
SignTorch_-_COON021_
 10
-0.2343970642089844
 20
3.832129839208391
 30
0.0
 42
0.15496582231387
  0
VERTEX
  5
552
  8
SignTorch_-_COON021_
 10
-0.1911624111027524
 20
3.767400254494718
 30
0.0
 42
0.0716237342838367
  0
VERTEX
  5
553
  8
SignTorch_-_COON021_
 10
-0.0486509704589844
 20
3.683625932958391
 30
0.0
 42
0.0292495407456452
  0
VERTEX
  5
554
  8
SignTorch_-_COON021_
 10
0.1579524353297455
 20
3.612871425291994
 30
0.0
 42
-0.3232684795889066
  0
VERTEX
  5
555
  8
SignTorch_-_COON021_
 10
0.1931476135253906
 20
3.568810747411516
 30
0.0
 42
-0.2568502372651487
  0
VERTEX
  5
556
  8
SignTorch_-_COON021_
 10
0.1700431547813
 20
3.521484441671871
 30
0.0
 42
-0.0793385337413765
  0
VERTEX
  5
557
  8
SignTorch_-_COON021_
 10
-0.0396353454589844
 20
3.418782182958391
 30
0.0
 42
-0.0005034293246508
  0
VERTEX
  5
558
  8
SignTorch_-_COON021_
 10
-0.2938790002676959
 20
3.341218093159195
 30
0.0
 42
0.1470523661144168
  0
VERTEX
  5
559
  8
SignTorch_-_COON021_
 10
-0.3714810485839843
 20
3.28958296420839
 30
0.0
 42
0.3988765916902962
  0
VERTEX
  5
55A
  8
SignTorch_-_COON021_
 10
-0.3650109127144808
 20
3.193738607022789
 30
0.0
 42
0.1097824367218072
  0
VERTEX
  5
55B
  8
SignTorch_-_COON021_
 10
-0.2557759704589844
 20
3.13037593295839
 30
0.0
 42
0.0463356693429387
  0
VERTEX
  5
55C
  8
SignTorch_-_COON021_
 10
-0.1226595422103065
 20
3.101399549124217
 30
0.0
 42
0.0480782890925758
  0
VERTEX
  5
55D
  8
SignTorch_-_COON021_
 10
0.0086146545410156
 20
3.098032182958391
 30
0.0
 42
-0.0124437577621022
  0
VERTEX
  5
55E
  8
SignTorch_-_COON021_
 10
0.1195934132727687
 20
3.103090830049688
 30
0.0
 42
-0.4419412845070065
  0
VERTEX
  5
55F
  8
SignTorch_-_COON021_
 10
0.1513490295410156
 20
3.069625932958391
 30
0.0
 42
-0.1743531536221101
  0
VERTEX
  5
560
  8
SignTorch_-_COON021_
 10
0.1364673384821863
 20
3.036149291595338
 30
0.0
 42
0.068281293894901
  0
VERTEX
  5
561
  8
SignTorch_-_COON021_
 10
0.0508412170410156
 20
2.918014604833391
 30
0.0
 42
0.1014154975871758
  0
VERTEX
  5
562
  8
SignTorch_-_COON021_
 10
0.0318587582384776
 20
2.854099592149016
 30
0.0
 42
0.1472011351173132
  0
VERTEX
  5
563
  8
SignTorch_-_COON021_
 10
0.0413490295410155
 20
2.808625932958391
 30
0.0
 42
0.0726583067945591
  0
VERTEX
  5
564
  8
SignTorch_-_COON021_
 10
0.0763311870111719
 20
2.761945018920752
 30
0.0
 42
-0.295125120021149
  0
VERTEX
  5
565
  8
SignTorch_-_COON021_
 10
0.0887318420410156
 20
2.704944292333391
 30
0.0
 42
-0.0743620084305838
  0
VERTEX
  5
566
  8
SignTorch_-_COON021_
 10
0.0816266988844944
 20
2.692187942766451
 30
0.0
 42
-0.0107057612560054
  0
VERTEX
  5
567
  8
SignTorch_-_COON021_
 10
0.0183490295410156
 20
2.61362593295839
 30
0.0
 42
-0.0061766027766028
  0
VERTEX
  5
568
  8
SignTorch_-_COON021_
 10
-0.2274115950048289
 20
2.328750546976651
 30
0.0
 42
0.0932746363961199
  0
VERTEX
  5
569
  8
SignTorch_-_COON021_
 10
-0.3690298767089844
 20
2.09150679233339
 30
0.0
 42
0.0758214994922094
  0
VERTEX
  5
56A
  8
SignTorch_-_COON021_
 10
-0.386442547357192
 20
2.005957077985454
 30
0.0
 42
0.3222566289880809
  0
VERTEX
  5
56B
  8
SignTorch_-_COON021_
 10
-0.3535142517089844
 20
1.955039995458391
 30
0.0
 42
0.1420678530565858
  0
VERTEX
  5
56C
  8
SignTorch_-_COON021_
 10
-0.281216379728612
 20
1.948442866698646
 30
0.0
 42
-0.08076221101442
  0
VERTEX
  5
56D
  8
SignTorch_-_COON021_
 10
-0.2086509704589844
 20
1.95062593295839
 30
0.0
 42
-0.5703396179886311
  0
VERTEX
  5
56E
  8
SignTorch_-_COON021_
 10
-0.1955794304028984
 20
1.91996960790561
 30
0.0
 42
0.0077062021409693
  0
VERTEX
  5
56F
  8
SignTorch_-_COON021_
 10
-0.2650083923339844
 20
1.822344682958391
 30
0.0
 42
0.14064153006341
  0
VERTEX
  5
570
  8
SignTorch_-_COON021_
 10
-0.3574049162218689
 20
1.546605909621523
 30
0.0
 42
-0.0720343954126021
  0
VERTEX
  5
571
  8
SignTorch_-_COON021_
 10
-0.3866509704589843
 20
1.392625932958391
 30
0.0
 42
0.011942697769511
  0
VERTEX
  5
572
  8
SignTorch_-_COON021_
 10
-0.4169999904560554
 20
1.297105030760811
 30
0.0
 42
0.4582564457293619
  0
VERTEX
  5
573
  8
SignTorch_-_COON021_
 10
-0.3671040954589844
 20
1.220219682958391
 30
0.0
 42
0.0938369560583482
  0
VERTEX
  5
574
  8
SignTorch_-_COON021_
 10
-0.2761860437619931
 20
1.224894652108744
 30
0.0
 42
0.0298774952573907
  0
VERTEX
  5
575
  8
SignTorch_-_COON021_
 10
-0.0050259704589844
 20
1.308250932958391
 30
0.0
 42
0.0096276004269987
  0
VERTEX
  5
576
  8
SignTorch_-_COON021_
 10
0.2197499188449223
 20
1.39730795197354
 30
0.0
 42
-0.0910106319314707
  0
VERTEX
  5
577
  8
SignTorch_-_COON021_
 10
0.2789584045410156
 20
1.410235307958391
 30
0.0
 42
-0.1376978624225284
  0
VERTEX
  5
578
  8
SignTorch_-_COON021_
 10
0.303244341189857
 20
1.404286132668585
 30
0.0
 42
-0.2456621486048769
  0
VERTEX
  5
579
  8
SignTorch_-_COON021_
 10
0.3111771545410156
 20
1.392047807958391
 30
0.0
 42
-0.136455135690055
  0
VERTEX
  5
57A
  8
SignTorch_-_COON021_
 10
0.3070541669906023
 20
1.369118776597642
 30
0.0
 42
-0.0250399317076636
  0
VERTEX
  5
57B
  8
SignTorch_-_COON021_
 10
0.2473490295410156
 20
1.259625932958391
 30
0.0
 42
0.0100087607766968
  0
VERTEX
  5
57C
  8
SignTorch_-_COON021_
 10
0.1179601404418283
 20
1.038424928252557
 30
0.0
 42
-0.0076885411632575
  0
VERTEX
  5
57D
  8
SignTorch_-_COON021_
 10
-0.0104009704589844
 20
0.8166259329583909
 30
0.0
 42
0.0409892066985188
  0
VERTEX
  5
57E
  8
SignTorch_-_COON021_
 10
-0.0792682258182875
 20
0.6769509539665155
 30
0.0
 42
0.2784137026992857
  0
VERTEX
  5
57F
  8
SignTorch_-_COON021_
 10
-0.0645826110839844
 20
0.5897958548333913
 30
0.0
 42
0.2251262940862729
  0
VERTEX
  5
580
  8
SignTorch_-_COON021_
 10
0.0136823522498412
 20
0.5550398458130136
 30
0.0
 42
-0.2903087854612378
  0
VERTEX
  5
581
  8
SignTorch_-_COON021_
 10
0.0532586975097656
 20
0.5313092825677659
 30
0.0
 42
-0.2921029838586653
  0
VERTEX
  5
582
  8
SignTorch_-_COON021_
 10
0.049907825502465
 20
0.4988334717975861
 30
0.0
 42
0.0639927831304321
  0
VERTEX
  5
583
  8
SignTorch_-_COON021_
 10
-0.0163111267089844
 20
0.3892099173333908
 30
0.0
 42
0.1716686356379982
  0
VERTEX
  5
584
  8
SignTorch_-_COON021_
 10
-0.0221473207125254
 20
0.3121213735828764
 30
0.0
 42
0.1753857720262856
  0
VERTEX
  5
585
  8
SignTorch_-_COON021_
 10
0.0213617248535156
 20
0.2500941946771411
 30
0.0
 42
0.1244434361329348
  0
VERTEX
  5
586
  8
SignTorch_-_COON021_
 10
0.0862941536679138
 20
0.2253383825491493
 30
0.0
 42
0.0723312070664433
  0
VERTEX
  5
587
  8
SignTorch_-_COON021_
 10
0.2045990295410156
 20
0.2286259329583911
 30
0.0
 42
-0.0137754128851745
  0
VERTEX
  5
588
  8
SignTorch_-_COON021_
 10
0.3128981030109549
 20
0.2444008553030776
 30
0.0
 42
-0.4840533412816108
  0
VERTEX
  5
589
  8
SignTorch_-_COON021_
 10
0.3454427795410156
 20
0.2119130423333912
 30
0.0
 42
-0.1500670814517069
  0
VERTEX
  5
58A
  8
SignTorch_-_COON021_
 10
0.3282712713838413
 20
0.1727541613560028
 30
0.0
 42
0.0029701502094168
  0
VERTEX
  5
58B
  8
SignTorch_-_COON021_
 10
0.2183490295410157
 20
0.0436259329583913
 30
0.0
 42
0.0514896269760057
  0
VERTEX
  5
58C
  8
SignTorch_-_COON021_
 10
-0.1342009833810478
 20
-0.4756981715233445
 30
0.0
 42
0.1841282682397975
  0
VERTEX
  5
58D
  8
SignTorch_-_COON021_
 10
-0.1503384704589844
 20
-0.599776410791609
 30
0.0
 42
0.2448235679025019
  0
VERTEX
  5
58E
  8
SignTorch_-_COON021_
 10
-0.0715458715615819
 20
-0.6905156278422874
 30
0.0
 42
0.1319298306931159
  0
VERTEX
  5
58F
  8
SignTorch_-_COON021_
 10
0.1411439514160157
 20
-0.7146963326666089
 30
0.0
 42
0.043843406241887
  0
VERTEX
  5
590
  8
SignTorch_-_COON021_
 10
0.3376016257906509
 20
-0.6672916088677258
 30
0.0
 42
-0.052681080417545
  0
VERTEX
  5
591
  8
SignTorch_-_COON021_
 10
0.5348646545410157
 20
-0.6233584420416091
 30
0.0
 42
-0.0930436619794993
  0
VERTEX
  5
592
  8
SignTorch_-_COON021_
 10
0.5907978631220707
 20
-0.6273746583207515
 30
0.0
 42
-0.2998600789220064
  0
VERTEX
  5
593
  8
SignTorch_-_COON021_
 10
0.6033490295410155
 20
-0.6413740670416092
 30
0.0
 42
-0.237513335469271
  0
VERTEX
  5
594
  8
SignTorch_-_COON021_
 10
0.5928870227348988
 20
-0.6731423813416062
 30
0.0
 42
0.2296265268808536
  0
VERTEX
  5
595
  8
SignTorch_-_COON021_
 10
0.5725775451660157
 20
-0.7318428170416089
 30
0.0
 42
0.4426359602038045
  0
VERTEX
  5
596
  8
SignTorch_-_COON021_
 10
0.6148591621954491
 20
-0.7619665772057991
 30
0.0
 42
-0.1177876650978286
  0
VERTEX
  5
597
  8
SignTorch_-_COON021_
 10
0.7095287170410157
 20
-0.7638701607916087
 30
0.0
 42
-0.4407260775999718
  0
VERTEX
  5
598
  8
SignTorch_-_COON021_
 10
0.7241942834464563
 20
-0.7916343828611927
 30
0.0
 42
-0.0775842928713186
  0
VERTEX
  5
599
  8
SignTorch_-_COON021_
 10
0.7003490295410155
 20
-0.8353740670416089
 30
0.0
 42
-0.011234633325678
  0
VERTEX
  5
59A
  8
SignTorch_-_COON021_
 10
0.5658983934387503
 20
-1.002850266388555
 30
0.0
 42
0.0344144782094055
  0
VERTEX
  5
59B
  8
SignTorch_-_COON021_
 10
0.4393490295410155
 20
-1.176374067041609
 30
0.0
 42
0.044765553186624
  0
VERTEX
  5
59C
  8
SignTorch_-_COON021_
 10
0.3535064675456993
 20
-1.344598701792663
 30
0.0
 42
0.0757652741975699
  0
VERTEX
  5
59D
  8
SignTorch_-_COON021_
 10
0.3278490295410155
 20
-1.453624067041609
 30
0.0
 42
0.0030625872602534
  0
VERTEX
  5
59E
  8
SignTorch_-_COON021_
 10
0.3222372650762653
 20
-1.529565121751189
 30
0.0
 42
-0.1221702047574291
  0
VERTEX
  5
59F
  8
SignTorch_-_COON021_
 10
0.3033490295410157
 20
-1.588374067041609
 30
0.0
 42
-0.0057751469388558
  0
VERTEX
  5
5A0
  8
SignTorch_-_COON021_
 10
0.2607522278985994
 20
-1.655500089719761
 30
0.0
 42
0.3643933602696421
  0
VERTEX
  5
5A1
  8
SignTorch_-_COON021_
 10
0.2688002014160156
 20
-1.721210004541609
 30
0.0
 42
0.1483954526844131
  0
VERTEX
  5
5A2
  8
SignTorch_-_COON021_
 10
0.3143217081727622
 20
-1.743503733768214
 30
0.0
 42
0.0380710163869331
  0
VERTEX
  5
5A3
  8
SignTorch_-_COON021_
 10
0.5072240295410156
 20
-1.759874067041609
 30
0.0
 42
0.014262430996534
  0
VERTEX
  5
5A4
  8
SignTorch_-_COON021_
 10
0.9931149885637958
 20
-1.750170641257908
 30
0.0
 42
-0.0222720243058845
  0
VERTEX
  5
5A5
  8
SignTorch_-_COON021_
 10
1.479099029541016
 20
-1.748249067041609
 30
0.0
 42
0.0173763744834747
  0
VERTEX
  5
5A6
  8
SignTorch_-_COON021_
 10
1.791805045708365
 20
-1.750073248281976
 30
0.0
 42
-0.0049835184335371
  0
VERTEX
  5
5A7
  8
SignTorch_-_COON021_
 10
3.042349029541015
 20
-1.726374067041609
 30
0.0
 42
-0.0004042677919631
  0
VERTEX
  5
5A8
  8
SignTorch_-_COON021_
 10
3.668852359051454
 20
-1.721253328548729
 30
0.0
 42
0.0010096335730949
  0
SEQEND
  5
5A9
  8
SignTorch_-_COON021_
  0
ENDSEC
  0
EOF
