  0
SECTION
  2
HEADER
  9
$ACADVER
  1
AC1009
  9
$DWGCODEPAGE
  3
ansi_1252
  9
$INSBASE
 10
0.0
 20
0.0
 30
0.0
  9
$EXTMIN
 10
3.497766839297696
 20
1.944411619503166
 30
0.0
  9
$EXTMAX
 10
11.49371261502711
 20
7.026400700593288
 30
0.0
  9
$LIMMIN
 10
0.0
 20
0.0
  9
$LIMMAX
 10
12.0
 20
9.0
  9
$ORTHOMODE
 70
     0
  9
$REGENMODE
 70
     1
  9
$FILLMODE
 70
     1
  9
$QTEXTMODE
 70
     0
  9
$MIRRTEXT
 70
     1
  9
$DRAGMODE
 70
     2
  9
$LTSCALE
 40
1.0
  9
$OSMODE
 70
    37
  9
$ATTMODE
 70
     1
  9
$TEXTSIZE
 40
0.2
  9
$TRACEWID
 40
0.05
  9
$TEXTSTYLE
  7
STANDARD
  9
$CLAYER
  8
0
  9
$CELTYPE
  6
BYLAYER
  9
$CECOLOR
 62
   256
  9
$DIMSCALE
 40
1.0
  9
$DIMASZ
 40
0.18
  9
$DIMEXO
 40
0.0625
  9
$DIMDLI
 40
0.38
  9
$DIMRND
 40
0.0
  9
$DIMDLE
 40
0.0
  9
$DIMEXE
 40
0.18
  9
$DIMTP
 40
0.0
  9
$DIMTM
 40
0.0
  9
$DIMTXT
 40
0.18
  9
$DIMCEN
 40
0.09
  9
$DIMTSZ
 40
0.0
  9
$DIMTOL
 70
     0
  9
$DIMLIM
 70
     0
  9
$DIMTIH
 70
     1
  9
$DIMTOH
 70
     1
  9
$DIMSE1
 70
     0
  9
$DIMSE2
 70
     0
  9
$DIMTAD
 70
     0
  9
$DIMZIN
 70
     0
  9
$DIMBLK
  1

  9
$DIMASO
 70
     1
  9
$DIMSHO
 70
     1
  9
$DIMPOST
  1

  9
$DIMAPOST
  1

  9
$DIMALT
 70
     0
  9
$DIMALTD
 70
     2
  9
$DIMALTF
 40
25.4
  9
$DIMLFAC
 40
1.0
  9
$DIMTOFL
 70
     0
  9
$DIMTVP
 40
0.0
  9
$DIMTIX
 70
     0
  9
$DIMSOXD
 70
     0
  9
$DIMSAH
 70
     0
  9
$DIMBLK1
  1

  9
$DIMBLK2
  1

  9
$DIMSTYLE
  2
STANDARD
  9
$DIMCLRD
 70
     0
  9
$DIMCLRE
 70
     0
  9
$DIMCLRT
 70
     0
  9
$DIMTFAC
 40
1.0
  9
$DIMGAP
 40
0.09
  9
$LUNITS
 70
     2
  9
$LUPREC
 70
     4
  9
$SKETCHINC
 40
0.1
  9
$FILLETRAD
 40
0.5
  9
$AUNITS
 70
     0
  9
$AUPREC
 70
     0
  9
$MENU
  1
.
  9
$ELEVATION
 40
0.0
  9
$PELEVATION
 40
0.0
  9
$THICKNESS
 40
0.0
  9
$LIMCHECK
 70
     0
  9
$CHAMFERA
 40
0.5
  9
$CHAMFERB
 40
0.5
  9
$SKPOLY
 70
     0
  9
$TDCREATE
 40
2454910.5
  9
$TDUPDATE
 40
2455562.333389028
  9
$TDINDWG
 40
0.0000000116
  9
$TDUSRTIMER
 40
0.0000000116
  9
$USRTIMER
 70
     1
  9
$ANGBASE
 50
0.0
  9
$ANGDIR
 70
     0
  9
$PDMODE
 70
     0
  9
$PDSIZE
 40
0.0
  9
$PLINEWID
 40
0.0
  9
$COORDS
 70
     1
  9
$SPLFRAME
 70
     0
  9
$SPLINETYPE
 70
     6
  9
$SPLINESEGS
 70
     8
  9
$ATTDIA
 70
     0
  9
$ATTREQ
 70
     1
  9
$HANDLING
 70
     1
  9
$HANDSEED
  5
1AC
  9
$SURFTAB1
 70
     6
  9
$SURFTAB2
 70
     6
  9
$SURFTYPE
 70
     6
  9
$SURFU
 70
     6
  9
$SURFV
 70
     6
  9
$UCSNAME
  2

  9
$UCSORG
 10
0.0
 20
0.0
 30
0.0
  9
$UCSXDIR
 10
1.0
 20
0.0
 30
0.0
  9
$UCSYDIR
 10
0.0
 20
1.0
 30
0.0
  9
$PUCSNAME
  2

  9
$PUCSORG
 10
0.0
 20
0.0
 30
0.0
  9
$PUCSXDIR
 10
1.0
 20
0.0
 30
0.0
  9
$PUCSYDIR
 10
0.0
 20
1.0
 30
0.0
  9
$USERI1
 70
     0
  9
$USERI2
 70
     0
  9
$USERI3
 70
     0
  9
$USERI4
 70
     0
  9
$USERI5
 70
     0
  9
$USERR1
 40
0.0
  9
$USERR2
 40
0.0
  9
$USERR3
 40
0.0
  9
$USERR4
 40
0.0
  9
$USERR5
 40
0.0
  9
$WORLDVIEW
 70
     1
  9
$SHADEDGE
 70
     3
  9
$SHADEDIF
 70
    70
  9
$TILEMODE
 70
     1
  9
$MAXACTVP
 70
    64
  9
$PLIMCHECK
 70
     0
  9
$PEXTMIN
 10
1.000000000000000E+20
 20
1.000000000000000E+20
 30
1.000000000000000E+20
  9
$PEXTMAX
 10
-1.000000000000000E+20
 20
-1.000000000000000E+20
 30
-1.000000000000000E+20
  9
$PLIMMIN
 10
0.0
 20
0.0
  9
$PLIMMAX
 10
12.0
 20
9.0
  9
$UNITMODE
 70
     0
  9
$VISRETAIN
 70
     1
  9
$PLINEGEN
 70
     0
  9
$PSLTSCALE
 70
     1
  0
ENDSEC
  0
SECTION
  2
TABLES
  0
TABLE
  2
VPORT
 70
     1
  0
VPORT
  2
*ACTIVE
 70
     0
 10
0.0
 20
0.0
 11
1.0
 21
1.0
 12
10.42990654205607
 22
4.5
 13
0.0
 23
0.0
 14
0.5
 24
0.5
 15
0.5
 25
0.5
 16
0.0
 26
0.0
 36
1.0
 17
0.0
 27
0.0
 37
0.0
 40
9.0
 41
1.972972972850329
 42
50.0
 43
0.0
 44
0.0
 50
0.0
 51
0.0
 71
     0
 72
   100
 73
     1
 74
     3
 75
     0
 76
     0
 77
     0
 78
     0
  0
ENDTAB
  0
TABLE
  2
LTYPE
 70
     2
  0
LTYPE
  2
CONTINUOUS
 70
     0
  3
Solid line
 72
    65
 73
     0
 40
0.0
  0
LTYPE
  2
CONTINUOUS2
 70
     0
  3
Solid Line
 72
    65
 73
     0
 40
0.0
  0
ENDTAB
  0
TABLE
  2
LAYER
 70
     2
  0
LAYER
  2
0
 70
     0
 62
     7
  6
CONTINUOUS
  0
LAYER
  2
SignTorch_-_ELEPHANT021_
 70
     0
 62
    18
  6
CONTINUOUS
  0
ENDTAB
  0
TABLE
  2
STYLE
 70
     1
  0
STYLE
  2
STANDARD
 70
     0
 40
0.0
 41
1.0
 50
0.0
 71
     0
 42
0.2
  3
txt
  4

  0
ENDTAB
  0
TABLE
  2
VIEW
 70
     0
  0
ENDTAB
  0
TABLE
  2
UCS
 70
     0
  0
ENDTAB
  0
TABLE
  2
APPID
 70
     1
  0
APPID
  2
ACAD
 70
     0
  0
ENDTAB
  0
TABLE
  2
DIMSTYLE
 70
     1
  0
DIMSTYLE
  2
STANDARD
 70
     0
  3

  4

  5

  6

  7

 40
1.0
 41
0.18
 42
0.0625
 43
0.38
 44
0.18
 45
0.0
 46
0.0
 47
0.0
 48
0.0
140
0.18
141
0.09
142
0.0
143
25.4
144
1.0
145
0.0
146
1.0
147
0.09
 71
     0
 72
     0
 73
     1
 74
     1
 75
     0
 76
     0
 77
     0
 78
     0
170
     0
171
     2
172
     0
173
     0
174
     0
175
     0
176
     0
177
     0
178
     0
  0
ENDTAB
  0
ENDSEC
  0
SECTION
  2
BLOCKS
  0
BLOCK
  8
0
  2
$MODEL_SPACE
 70
     0
 10
0.0
 20
0.0
 30
0.0
  3
$MODEL_SPACE
  1

  0
ENDBLK
  5
21
  8
0
  0
BLOCK
 67
     1
  8
0
  2
$PAPER_SPACE
 70
     0
 10
0.0
 20
0.0
 30
0.0
  3
$PAPER_SPACE
  1

  0
ENDBLK
  5
1D
 67
     1
  8
0
  0
ENDSEC
  0
SECTION
  2
ENTITIES
  0
POLYLINE
  5
41
  8
SignTorch_-_ELEPHANT021_
 66
     1
 10
0.0
 20
0.0
 30
0.0
 70
     1
  0
VERTEX
  5
51
  8
SignTorch_-_ELEPHANT021_
 10
7.038046324133873
 20
6.338648423936632
 30
0.0
 42
-0.0530452467053767
  0
VERTEX
  5
52
  8
SignTorch_-_ELEPHANT021_
 10
7.150139197103373
 20
6.181696319744629
 30
0.0
 42
-0.1668323758341438
  0
VERTEX
  5
53
  8
SignTorch_-_ELEPHANT021_
 10
7.161612730383872
 20
6.119898423936633
 30
0.0
 42
-0.2106736187877653
  0
VERTEX
  5
54
  8
SignTorch_-_ELEPHANT021_
 10
7.139076421850814
 20
6.084137261438867
 30
0.0
 42
-0.3788143262412001
  0
VERTEX
  5
55
  8
SignTorch_-_ELEPHANT021_
 10
7.113558042883872
 20
6.087499986436631
 30
0.0
 42
-0.0984999517987059
  0
VERTEX
  5
56
  8
SignTorch_-_ELEPHANT021_
 10
7.098772420577104
 20
6.113372363235428
 30
0.0
 42
0.0698825074657067
  0
VERTEX
  5
57
  8
SignTorch_-_ELEPHANT021_
 10
7.045620542883873
 20
6.220019517686631
 30
0.0
 42
0.071283099404202
  0
VERTEX
  5
58
  8
SignTorch_-_ELEPHANT021_
 10
6.804170600008322
 20
6.482219342666184
 30
0.0
 42
0.0973085142105346
  0
VERTEX
  5
59
  8
SignTorch_-_ELEPHANT021_
 10
6.572811949133873
 20
6.605695298936631
 30
0.0
 42
0.1929490168824594
  0
VERTEX
  5
5A
  8
SignTorch_-_ELEPHANT021_
 10
6.40007537423786
 20
6.590981171289462
 30
0.0
 42
-0.2381156980744446
  0
VERTEX
  5
5B
  8
SignTorch_-_ELEPHANT021_
 10
6.356702574133872
 20
6.591039048936632
 30
0.0
 42
-0.6475312804598913
  0
VERTEX
  5
5C
  8
SignTorch_-_ELEPHANT021_
 10
6.358253099852779
 20
6.623768417954968
 30
0.0
 42
-0.1094190937706093
  0
VERTEX
  5
5D
  8
SignTorch_-_ELEPHANT021_
 10
6.546759214758874
 20
6.653457017686631
 30
0.0
 42
-0.1471292823564589
  0
VERTEX
  5
5E
  8
SignTorch_-_ELEPHANT021_
 10
6.797226383215032
 20
6.56091438138723
 30
0.0
 42
-0.0496751072567496
  0
SEQEND
  5
5F
  8
SignTorch_-_ELEPHANT021_
  0
POLYLINE
  5
42
  8
SignTorch_-_ELEPHANT021_
 66
     1
 10
0.0
 20
0.0
 30
0.0
 70
     1
  0
VERTEX
  5
60
  8
SignTorch_-_ELEPHANT021_
 10
3.856296324133873
 20
6.633773423936631
 30
0.0
 42
-0.0260295398890765
  0
VERTEX
  5
61
  8
SignTorch_-_ELEPHANT021_
 10
3.782929267459517
 20
6.607403690483567
 30
0.0
 42
-0.5818800239045724
  0
VERTEX
  5
62
  8
SignTorch_-_ELEPHANT021_
 10
3.766921324133873
 20
6.622648423936631
 30
0.0
 42
-0.2289341296663324
  0
VERTEX
  5
63
  8
SignTorch_-_ELEPHANT021_
 10
3.795760937252208
 20
6.657288465983383
 30
0.0
 42
-0.1248945258963461
  0
VERTEX
  5
64
  8
SignTorch_-_ELEPHANT021_
 10
3.874233824133873
 20
6.671398423936632
 30
0.0
 42
-0.0662390730276601
  0
VERTEX
  5
65
  8
SignTorch_-_ELEPHANT021_
 10
3.893519190445037
 20
6.667431200472124
 30
0.0
 42
-0.6567998080593902
  0
VERTEX
  5
66
  8
SignTorch_-_ELEPHANT021_
 10
3.895046324133873
 20
6.646648423936631
 30
0.0
 42
-0.0700584677075389
  0
VERTEX
  5
67
  8
SignTorch_-_ELEPHANT021_
 10
3.875807776110705
 20
6.63980024322966
 30
0.0
 42
0.0487895921164193
  0
SEQEND
  5
68
  8
SignTorch_-_ELEPHANT021_
  0
POLYLINE
  5
43
  8
SignTorch_-_ELEPHANT021_
 66
     1
 10
0.0
 20
0.0
 30
0.0
 70
     1
  0
VERTEX
  5
69
  8
SignTorch_-_ELEPHANT021_
 10
3.913421324133874
 20
6.583085923936631
 30
0.0
 42
-0.5687136177360211
  0
VERTEX
  5
6A
  8
SignTorch_-_ELEPHANT021_
 10
3.918396705952355
 20
6.554282435818177
 30
0.0
 42
-0.1915976139674652
  0
VERTEX
  5
6B
  8
SignTorch_-_ELEPHANT021_
 10
3.854077574133873
 20
6.532320298936631
 30
0.0
 42
-0.1820112160849588
  0
VERTEX
  5
6C
  8
SignTorch_-_ELEPHANT021_
 10
3.83173429700906
 20
6.54202194935837
 30
0.0
 42
-0.4027200491788189
  0
VERTEX
  5
6D
  8
SignTorch_-_ELEPHANT021_
 10
3.831296324133873
 20
6.554398423936631
 30
0.0
 42
-0.1125828245005218
  0
VERTEX
  5
6E
  8
SignTorch_-_ELEPHANT021_
 10
3.854506680907627
 20
6.570837440041175
 30
0.0
 42
-0.0644896208195539
  0
VERTEX
  5
6F
  8
SignTorch_-_ELEPHANT021_
 10
3.902046324133873
 20
6.583648423936631
 30
0.0
 42
-0.0459915208299647
  0
VERTEX
  5
70
  8
SignTorch_-_ELEPHANT021_
 10
3.909286418304122
 20
6.58395637113438
 30
0.0
 42
-0.0792010814775974
  0
SEQEND
  5
71
  8
SignTorch_-_ELEPHANT021_
  0
POLYLINE
  5
44
  8
SignTorch_-_ELEPHANT021_
 66
     1
 10
0.0
 20
0.0
 30
0.0
 70
     1
  0
VERTEX
  5
72
  8
SignTorch_-_ELEPHANT021_
 10
4.974546324133873
 20
4.903023423936631
 30
0.0
 42
-0.040230634607363
  0
VERTEX
  5
73
  8
SignTorch_-_ELEPHANT021_
 10
4.879985912755248
 20
4.842138010960184
 30
0.0
 42
-0.2256947781051077
  0
VERTEX
  5
74
  8
SignTorch_-_ELEPHANT021_
 10
4.858975279211998
 20
4.841135240342881
 30
0.0
 42
-0.4263893439744931
  0
VERTEX
  5
75
  8
SignTorch_-_ELEPHANT021_
 10
4.853527179163943
 20
4.855246863117044
 30
0.0
 42
-0.0785693300853097
  0
VERTEX
  5
76
  8
SignTorch_-_ELEPHANT021_
 10
4.892671324133874
 20
4.913148423936631
 30
0.0
 42
-0.0141504536798291
  0
VERTEX
  5
77
  8
SignTorch_-_ELEPHANT021_
 10
4.956762951318887
 20
4.977989729261511
 30
0.0
 42
0.0388466484349889
  0
VERTEX
  5
78
  8
SignTorch_-_ELEPHANT021_
 10
5.017577574133873
 20
5.045914048936632
 30
0.0
 42
-0.0182996247178537
  0
VERTEX
  5
79
  8
SignTorch_-_ELEPHANT021_
 10
5.151158244141052
 20
5.208038175483204
 30
0.0
 42
-0.5699960100135031
  0
VERTEX
  5
7A
  8
SignTorch_-_ELEPHANT021_
 10
5.241046324133873
 20
5.190648423936631
 30
0.0
 42
-0.2899258359850346
  0
VERTEX
  5
7B
  8
SignTorch_-_ELEPHANT021_
 10
5.225306956892581
 20
5.120531204526942
 30
0.0
 42
-0.0216877301955097
  0
VERTEX
  5
7C
  8
SignTorch_-_ELEPHANT021_
 10
5.112046324133872
 20
5.016648423936631
 30
0.0
 42
-0.0020645197628376
  0
VERTEX
  5
7D
  8
SignTorch_-_ELEPHANT021_
 10
4.999405922656337
 20
4.922781108601574
 30
0.0
 42
-0.0095335813225158
  0
SEQEND
  5
7E
  8
SignTorch_-_ELEPHANT021_
  0
POLYLINE
  5
45
  8
SignTorch_-_ELEPHANT021_
 66
     1
 10
0.0
 20
0.0
 30
0.0
 70
     1
  0
VERTEX
  5
7F
  8
SignTorch_-_ELEPHANT021_
 10
5.448046324133872
 20
6.033648423936632
 30
0.0
 42
0.4016746435091289
  0
VERTEX
  5
80
  8
SignTorch_-_ELEPHANT021_
 10
5.415643857811165
 20
6.059527813949344
 30
0.0
 42
0.1196016714300584
  0
VERTEX
  5
81
  8
SignTorch_-_ELEPHANT021_
 10
5.366046324133873
 20
6.042648423936631
 30
0.0
 42
-0.1078700989818184
  0
VERTEX
  5
82
  8
SignTorch_-_ELEPHANT021_
 10
5.342503713894752
 20
6.034022803454844
 30
0.0
 42
-0.4496485156418165
  0
VERTEX
  5
83
  8
SignTorch_-_ELEPHANT021_
 10
5.337077574133873
 20
6.038675767686632
 30
0.0
 42
-0.2230825825386215
  0
VERTEX
  5
84
  8
SignTorch_-_ELEPHANT021_
 10
5.354154006102303
 20
6.076695745899389
 30
0.0
 42
-0.1337098475677085
  0
VERTEX
  5
85
  8
SignTorch_-_ELEPHANT021_
 10
5.415046324133873
 20
6.105648423936631
 30
0.0
 42
-0.1637806358241314
  0
VERTEX
  5
86
  8
SignTorch_-_ELEPHANT021_
 10
5.452739739960909
 20
6.100079286347597
 30
0.0
 42
-0.0642083498053253
  0
VERTEX
  5
87
  8
SignTorch_-_ELEPHANT021_
 10
5.531202574133873
 20
6.046445298936631
 30
0.0
 42
-0.0751684454498569
  0
VERTEX
  5
88
  8
SignTorch_-_ELEPHANT021_
 10
5.548485597076279
 20
6.025627748808183
 30
0.0
 42
-0.3684533447377075
  0
VERTEX
  5
89
  8
SignTorch_-_ELEPHANT021_
 10
5.543058042883874
 20
5.992666002061632
 30
0.0
 42
-0.0985642073271614
  0
VERTEX
  5
8A
  8
SignTorch_-_ELEPHANT021_
 10
5.489812315622208
 20
5.963226425674054
 30
0.0
 42
-0.4253227428728777
  0
VERTEX
  5
8B
  8
SignTorch_-_ELEPHANT021_
 10
5.452046324133873
 20
5.983648423936631
 30
0.0
 42
-0.0784126616090011
  0
VERTEX
  5
8C
  8
SignTorch_-_ELEPHANT021_
 10
5.449184514324712
 20
6.008579479151899
 30
0.0
 42
0.0438218157178713
  0
SEQEND
  5
8D
  8
SignTorch_-_ELEPHANT021_
  0
POLYLINE
  5
46
  8
SignTorch_-_ELEPHANT021_
 66
     1
 10
0.0
 20
0.0
 30
0.0
 70
     1
  0
VERTEX
  5
8E
  8
SignTorch_-_ELEPHANT021_
 10
6.189874449133872
 20
5.943976548936632
 30
0.0
 42
-0.0840532807249364
  0
VERTEX
  5
8F
  8
SignTorch_-_ELEPHANT021_
 10
6.230411370133254
 20
6.178356683773541
 30
0.0
 42
-0.1701410505581534
  0
VERTEX
  5
90
  8
SignTorch_-_ELEPHANT021_
 10
6.383046324133873
 20
6.368648423936632
 30
0.0
 42
-0.0741178485783194
  0
VERTEX
  5
91
  8
SignTorch_-_ELEPHANT021_
 10
6.423662672814402
 20
6.386289502131118
 30
0.0
 42
-0.5804690888571494
  0
VERTEX
  5
92
  8
SignTorch_-_ELEPHANT021_
 10
6.441874449133873
 20
6.367906236436632
 30
0.0
 42
-0.1449150857579508
  0
VERTEX
  5
93
  8
SignTorch_-_ELEPHANT021_
 10
6.412679038897526
 20
6.321233528787837
 30
0.0
 42
0.120181941970751
  0
VERTEX
  5
94
  8
SignTorch_-_ELEPHANT021_
 10
6.286993589758873
 20
6.140480455186632
 30
0.0
 42
0.1112505060967118
  0
VERTEX
  5
95
  8
SignTorch_-_ELEPHANT021_
 10
6.244885094754584
 20
5.855676656523518
 30
0.0
 42
0.1143446197342309
  0
VERTEX
  5
96
  8
SignTorch_-_ELEPHANT021_
 10
6.328390074133872
 20
5.588101548936631
 30
0.0
 42
0.0526033686544003
  0
VERTEX
  5
97
  8
SignTorch_-_ELEPHANT021_
 10
6.359016671984342
 20
5.546561771162865
 30
0.0
 42
-0.1707496233923269
  0
VERTEX
  5
98
  8
SignTorch_-_ELEPHANT021_
 10
6.379218199133872
 20
5.499070298936632
 30
0.0
 42
-0.5333001732927872
  0
VERTEX
  5
99
  8
SignTorch_-_ELEPHANT021_
 10
6.368296834388678
 20
5.490683393549657
 30
0.0
 42
-0.1189612350361852
  0
VERTEX
  5
9A
  8
SignTorch_-_ELEPHANT021_
 10
6.327046324133873
 20
5.516648423936632
 30
0.0
 42
-0.151151289806732
  0
VERTEX
  5
9B
  8
SignTorch_-_ELEPHANT021_
 10
6.205944628767403
 20
5.753781184356217
 30
0.0
 42
-0.0439482543722292
  0
SEQEND
  5
9C
  8
SignTorch_-_ELEPHANT021_
  0
POLYLINE
  5
47
  8
SignTorch_-_ELEPHANT021_
 66
     1
 10
0.0
 20
0.0
 30
0.0
 70
     1
  0
VERTEX
  5
9D
  8
SignTorch_-_ELEPHANT021_
 10
6.622671324133872
 20
5.610148423936631
 30
0.0
 42
0.0205341692363158
  0
VERTEX
  5
9E
  8
SignTorch_-_ELEPHANT021_
 10
6.678837917437884
 20
5.736194409636612
 30
0.0
 42
-0.0594092100630715
  0
VERTEX
  5
9F
  8
SignTorch_-_ELEPHANT021_
 10
6.744608824133873
 20
5.857505845811631
 30
0.0
 42
-0.0906707947198065
  0
VERTEX
  5
A0
  8
SignTorch_-_ELEPHANT021_
 10
6.881978844927931
 20
5.991903590006287
 30
0.0
 42
-0.1261785644018084
  0
VERTEX
  5
A1
  8
SignTorch_-_ELEPHANT021_
 10
7.013046324133873
 20
6.038648423936632
 30
0.0
 42
-0.1456298264553631
  0
VERTEX
  5
A2
  8
SignTorch_-_ELEPHANT021_
 10
7.02799321229542
 20
6.035654736668674
 30
0.0
 42
-0.2842672982851864
  0
VERTEX
  5
A3
  8
SignTorch_-_ELEPHANT021_
 10
7.032171324133873
 20
6.028523423936631
 30
0.0
 42
-0.234711221895362
  0
VERTEX
  5
A4
  8
SignTorch_-_ELEPHANT021_
 10
7.018360698195382
 20
6.002318024434586
 30
0.0
 42
-0.0107023544083059
  0
VERTEX
  5
A5
  8
SignTorch_-_ELEPHANT021_
 10
6.923046324133873
 20
5.936648423936632
 30
0.0
 42
0.0490555183609087
  0
VERTEX
  5
A6
  8
SignTorch_-_ELEPHANT021_
 10
6.826362552575528
 20
5.85847686280784
 30
0.0
 42
0.0774784058014007
  0
VERTEX
  5
A7
  8
SignTorch_-_ELEPHANT021_
 10
6.779296324133872
 20
5.795023423936632
 30
0.0
 42
0.0247835817370395
  0
VERTEX
  5
A8
  8
SignTorch_-_ELEPHANT021_
 10
6.738291557208487
 20
5.706548326675843
 30
0.0
 42
-0.0432807566038869
  0
VERTEX
  5
A9
  8
SignTorch_-_ELEPHANT021_
 10
6.694046324133872
 20
5.619648423936632
 30
0.0
 42
-0.0255482744492227
  0
VERTEX
  5
AA
  8
SignTorch_-_ELEPHANT021_
 10
6.612387797170515
 20
5.502447664934031
 30
0.0
 42
-0.0799857670307476
  0
VERTEX
  5
AB
  8
SignTorch_-_ELEPHANT021_
 10
6.578860777258872
 20
5.471117173936631
 30
0.0
 42
-0.7617326856067932
  0
VERTEX
  5
AC
  8
SignTorch_-_ELEPHANT021_
 10
6.559820671664746
 20
5.487483460329761
 30
0.0
 42
-0.0048750396050244
  0
VERTEX
  5
AD
  8
SignTorch_-_ELEPHANT021_
 10
6.586046324133873
 20
5.541648423936631
 30
0.0
 42
-0.0152201526533473
  0
VERTEX
  5
AE
  8
SignTorch_-_ELEPHANT021_
 10
6.604362316353053
 20
5.575896556746449
 30
0.0
 42
0.0153221390353721
  0
SEQEND
  5
AF
  8
SignTorch_-_ELEPHANT021_
  0
POLYLINE
  5
48
  8
SignTorch_-_ELEPHANT021_
 66
     1
 10
0.0
 20
0.0
 30
0.0
 70
     1
  0
VERTEX
  5
B0
  8
SignTorch_-_ELEPHANT021_
 10
7.265046324133872
 20
4.006648423936632
 30
0.0
 42
0.0754737886051254
  0
VERTEX
  5
B1
  8
SignTorch_-_ELEPHANT021_
 10
7.478248739589263
 20
4.299540825326161
 30
0.0
 42
0.0450951929326443
  0
VERTEX
  5
B2
  8
SignTorch_-_ELEPHANT021_
 10
7.707046324133873
 20
4.858648423936631
 30
0.0
 42
0.0405932693038041
  0
VERTEX
  5
B3
  8
SignTorch_-_ELEPHANT021_
 10
7.719788814290943
 20
4.916401745501806
 30
0.0
 42
-0.1452918555364972
  0
VERTEX
  5
B4
  8
SignTorch_-_ELEPHANT021_
 10
7.744151792883874
 20
4.970292955186631
 30
0.0
 42
-0.4831832831148004
  0
VERTEX
  5
B5
  8
SignTorch_-_ELEPHANT021_
 10
7.754067481056826
 20
4.969870728798369
 30
0.0
 42
-0.156163956919316
  0
VERTEX
  5
B6
  8
SignTorch_-_ELEPHANT021_
 10
7.762046324133873
 20
4.945648423936632
 30
0.0
 42
-0.0730446958282853
  0
VERTEX
  5
B7
  8
SignTorch_-_ELEPHANT021_
 10
7.737487524082447
 20
4.768099203191084
 30
0.0
 42
-0.0541346079609521
  0
VERTEX
  5
B8
  8
SignTorch_-_ELEPHANT021_
 10
7.508983824133872
 20
4.214476548936632
 30
0.0
 42
-0.0786830982674162
  0
VERTEX
  5
B9
  8
SignTorch_-_ELEPHANT021_
 10
7.314224682023007
 20
3.961788645258128
 30
0.0
 42
-0.1052505034727531
  0
VERTEX
  5
BA
  8
SignTorch_-_ELEPHANT021_
 10
7.187046324133872
 20
3.884273423936631
 30
0.0
 42
-0.0988536794671598
  0
VERTEX
  5
BB
  8
SignTorch_-_ELEPHANT021_
 10
7.1514082603212
 20
3.879230171063097
 30
0.0
 42
-0.4259888453567127
  0
VERTEX
  5
BC
  8
SignTorch_-_ELEPHANT021_
 10
7.145046324133873
 20
3.886648423936632
 30
0.0
 42
-0.1887121503573292
  0
VERTEX
  5
BD
  8
SignTorch_-_ELEPHANT021_
 10
7.15511470817358
 20
3.906491019722073
 30
0.0
 42
0.0053500701388483
  0
VERTEX
  5
BE
  8
SignTorch_-_ELEPHANT021_
 10
7.220046324133872
 20
3.965648423936631
 30
0.0
 42
-0.0105042778676849
  0
VERTEX
  5
BF
  8
SignTorch_-_ELEPHANT021_
 10
7.24275807388591
 20
3.985916015672199
 30
0.0
 42
0.0208357947771247
  0
SEQEND
  5
C0
  8
SignTorch_-_ELEPHANT021_
  0
POLYLINE
  5
49
  8
SignTorch_-_ELEPHANT021_
 66
     1
 10
0.0
 20
0.0
 30
0.0
 70
     1
  0
VERTEX
  5
C1
  8
SignTorch_-_ELEPHANT021_
 10
9.357655699133872
 20
4.624601548936631
 30
0.0
 42
-0.0166346136889551
  0
VERTEX
  5
C2
  8
SignTorch_-_ELEPHANT021_
 10
9.432165656796997
 20
4.786362663586785
 30
0.0
 42
-0.0750748136941149
  0
VERTEX
  5
C3
  8
SignTorch_-_ELEPHANT021_
 10
9.455048277258872
 20
4.818771470811631
 30
0.0
 42
-0.14655394348115
  0
VERTEX
  5
C4
  8
SignTorch_-_ELEPHANT021_
 10
9.469876452916768
 20
4.827165487760181
 30
0.0
 42
-0.3985414352182005
  0
VERTEX
  5
C5
  8
SignTorch_-_ELEPHANT021_
 10
9.475993589758872
 20
4.823544908311632
 30
0.0
 42
-0.1641672689473702
  0
VERTEX
  5
C6
  8
SignTorch_-_ELEPHANT021_
 10
9.474248033255384
 20
4.786867144058949
 30
0.0
 42
-0.0009294939844514
  0
VERTEX
  5
C7
  8
SignTorch_-_ELEPHANT021_
 10
9.421046324133872
 20
4.651648423936631
 30
0.0
 42
0.0374924828204053
  0
VERTEX
  5
C8
  8
SignTorch_-_ELEPHANT021_
 10
9.336521583074436
 20
4.380092503918704
 30
0.0
 42
0.063910992350346
  0
VERTEX
  5
C9
  8
SignTorch_-_ELEPHANT021_
 10
9.30423382413387
 20
4.055539048936632
 30
0.0
 42
0.0246399645214752
  0
VERTEX
  5
CA
  8
SignTorch_-_ELEPHANT021_
 10
9.31465857639411
 20
3.921747847964529
 30
0.0
 42
0.019169457798164
  0
VERTEX
  5
CB
  8
SignTorch_-_ELEPHANT021_
 10
9.343046324133871
 20
3.751648423936632
 30
0.0
 42
-0.0078175369811126
  0
VERTEX
  5
CC
  8
SignTorch_-_ELEPHANT021_
 10
9.350969238397733
 20
3.710017587784904
 30
0.0
 42
-0.4829396526554419
  0
VERTEX
  5
CD
  8
SignTorch_-_ELEPHANT021_
 10
9.343296324133872
 20
3.701398423936632
 30
0.0
 42
-0.2696965367439621
  0
VERTEX
  5
CE
  8
SignTorch_-_ELEPHANT021_
 10
9.320092495940408
 20
3.716709101078949
 30
0.0
 42
-0.0661692994217596
  0
VERTEX
  5
CF
  8
SignTorch_-_ELEPHANT021_
 10
9.250124449133875
 20
3.921960923936632
 30
0.0
 42
-0.1004576401640678
  0
VERTEX
  5
D0
  8
SignTorch_-_ELEPHANT021_
 10
9.251515994293054
 20
4.282981665947228
 30
0.0
 42
-0.0486092224456304
  0
SEQEND
  5
D1
  8
SignTorch_-_ELEPHANT021_
  0
POLYLINE
  5
4A
  8
SignTorch_-_ELEPHANT021_
 66
     1
 10
0.0
 20
0.0
 30
0.0
 70
     1
  0
VERTEX
  5
D2
  8
SignTorch_-_ELEPHANT021_
 10
10.14054632413387
 20
3.832148423936632
 30
0.0
 42
0.0316939892327271
  0
VERTEX
  5
D3
  8
SignTorch_-_ELEPHANT021_
 10
10.23683225655939
 20
4.197186698054118
 30
0.0
 42
-0.0326307526914355
  0
VERTEX
  5
D4
  8
SignTorch_-_ELEPHANT021_
 10
10.28904632413387
 20
4.393648423936631
 30
0.0
 42
-0.0035828616853537
  0
VERTEX
  5
D5
  8
SignTorch_-_ELEPHANT021_
 10
10.30460587611431
 20
4.438754772847987
 30
0.0
 42
-0.6169247182896028
  0
VERTEX
  5
D6
  8
SignTorch_-_ELEPHANT021_
 10
10.32351507413387
 20
4.441148423936632
 30
0.0
 42
-0.1523045962912657
  0
VERTEX
  5
D7
  8
SignTorch_-_ELEPHANT021_
 10
10.33663430871031
 20
4.397005399014097
 30
0.0
 42
-0.0522130806937321
  0
VERTEX
  5
D8
  8
SignTorch_-_ELEPHANT021_
 10
10.32117132413387
 20
4.266273423936632
 30
0.0
 42
-0.0203911058564156
  0
VERTEX
  5
D9
  8
SignTorch_-_ELEPHANT021_
 10
10.22111788006533
 20
3.894418678427162
 30
0.0
 42
-0.0268599026536374
  0
VERTEX
  5
DA
  8
SignTorch_-_ELEPHANT021_
 10
10.11883538663387
 20
3.620460923936632
 30
0.0
 42
-0.0463473414780516
  0
VERTEX
  5
DB
  8
SignTorch_-_ELEPHANT021_
 10
10.06662144281414
 20
3.525709789292734
 30
0.0
 42
-0.2758062339878491
  0
VERTEX
  5
DC
  8
SignTorch_-_ELEPHANT021_
 10
10.04892913663387
 20
3.517460923936632
 30
0.0
 42
-0.3652026823177937
  0
VERTEX
  5
DD
  8
SignTorch_-_ELEPHANT021_
 10
10.04233285652817
 20
3.524283514574593
 30
0.0
 42
-0.0866399070432648
  0
VERTEX
  5
DE
  8
SignTorch_-_ELEPHANT021_
 10
10.04604632413387
 20
3.559648423936631
 30
0.0
 42
-0.0227008852777742
  0
VERTEX
  5
DF
  8
SignTorch_-_ELEPHANT021_
 10
10.09180455813229
 20
3.69641575196287
 30
0.0
 42
0.0117492237577194
  0
SEQEND
  5
E0
  8
SignTorch_-_ELEPHANT021_
  0
POLYLINE
  5
4B
  8
SignTorch_-_ELEPHANT021_
 66
     1
 10
0.0
 20
0.0
 30
0.0
 70
     1
  0
VERTEX
  5
E1
  8
SignTorch_-_ELEPHANT021_
 10
10.71254632413387
 20
2.670273423936632
 30
0.0
 42
-0.0232194216177995
  0
VERTEX
  5
E2
  8
SignTorch_-_ELEPHANT021_
 10
10.80854257615129
 20
2.568386632306022
 30
0.0
 42
-0.1920797192416277
  0
VERTEX
  5
E3
  8
SignTorch_-_ELEPHANT021_
 10
10.83226507413387
 20
2.499054673936632
 30
0.0
 42
-0.0625452058251567
  0
VERTEX
  5
E4
  8
SignTorch_-_ELEPHANT021_
 10
10.81453902952063
 20
2.398677797539166
 30
0.0
 42
0.1388611781761727
  0
VERTEX
  5
E5
  8
SignTorch_-_ELEPHANT021_
 10
10.81004632413387
 20
2.209648423936632
 30
0.0
 42
0.3467908770079912
  0
VERTEX
  5
E6
  8
SignTorch_-_ELEPHANT021_
 10
10.91584247085703
 20
2.129058793532339
 30
0.0
 42
0.1498411304447341
  0
VERTEX
  5
E7
  8
SignTorch_-_ELEPHANT021_
 10
11.18302288663387
 20
2.215859361436632
 30
0.0
 42
0.1016924278256505
  0
VERTEX
  5
E8
  8
SignTorch_-_ELEPHANT021_
 10
11.34086759115273
 20
2.383094667140589
 30
0.0
 42
0.2092619882108512
  0
VERTEX
  5
E9
  8
SignTorch_-_ELEPHANT021_
 10
11.37379632413387
 20
2.614648423936631
 30
0.0
 42
-0.0098215266765891
  0
VERTEX
  5
EA
  8
SignTorch_-_ELEPHANT021_
 10
11.34274428556012
 20
2.735417598865738
 30
0.0
 42
-0.0279100465234613
  0
VERTEX
  5
EB
  8
SignTorch_-_ELEPHANT021_
 10
11.33504632413387
 20
2.778648423936632
 30
0.0
 42
0.1463952893293093
  0
VERTEX
  5
EC
  8
SignTorch_-_ELEPHANT021_
 10
11.22961726379976
 20
3.020465746867737
 30
0.0
 42
0.0032122629195879
  0
VERTEX
  5
ED
  8
SignTorch_-_ELEPHANT021_
 10
11.03870257413387
 20
3.243351548936632
 30
0.0
 42
0.0081310205569858
  0
VERTEX
  5
EE
  8
SignTorch_-_ELEPHANT021_
 10
10.83845967126898
 20
3.466668538062345
 30
0.0
 42
-0.1470182788730383
  0
VERTEX
  5
EF
  8
SignTorch_-_ELEPHANT021_
 10
10.73887444913387
 20
3.670070298936632
 30
0.0
 42
-0.0350348522772379
  0
VERTEX
  5
F0
  8
SignTorch_-_ELEPHANT021_
 10
10.72932320531659
 20
3.772138085069532
 30
0.0
 42
0.0514154593412052
  0
VERTEX
  5
F1
  8
SignTorch_-_ELEPHANT021_
 10
10.67779632413387
 20
4.178898423936632
 30
0.0
 42
-0.0699888967066568
  0
VERTEX
  5
F2
  8
SignTorch_-_ELEPHANT021_
 10
10.66003070009955
 20
4.377994578352602
 30
0.0
 42
0.0677640800018396
  0
VERTEX
  5
F3
  8
SignTorch_-_ELEPHANT021_
 10
10.62867523038387
 20
4.74788670518663
 30
0.0
 42
0.0367802512307925
  0
VERTEX
  5
F4
  8
SignTorch_-_ELEPHANT021_
 10
10.59738319241423
 20
4.851455927201105
 30
0.0
 42
0.044579659875356
  0
VERTEX
  5
F5
  8
SignTorch_-_ELEPHANT021_
 10
10.55804632413387
 20
4.931648423936631
 30
0.0
 42
-0.0240270992565402
  0
VERTEX
  5
F6
  8
SignTorch_-_ELEPHANT021_
 10
10.52893324142922
 20
4.985309004926778
 30
0.0
 42
-0.345398145349279
  0
VERTEX
  5
F7
  8
SignTorch_-_ELEPHANT021_
 10
10.54191351163387
 20
5.044441392686631
 30
0.0
 42
-0.2168769109170391
  0
VERTEX
  5
F8
  8
SignTorch_-_ELEPHANT021_
 10
10.65356092415004
 20
5.074433180419805
 30
0.0
 42
-0.1715435820047603
  0
VERTEX
  5
F9
  8
SignTorch_-_ELEPHANT021_
 10
10.96023968350887
 20
4.905103502061632
 30
0.0
 42
-0.0842025869106207
  0
VERTEX
  5
FA
  8
SignTorch_-_ELEPHANT021_
 10
11.07639007740754
 20
4.719231138841587
 30
0.0
 42
-0.0616344819804539
  0
VERTEX
  5
FB
  8
SignTorch_-_ELEPHANT021_
 10
11.15524944913387
 20
4.431382798936632
 30
0.0
 42
-0.020802929169167
  0
VERTEX
  5
FC
  8
SignTorch_-_ELEPHANT021_
 10
11.17821391450533
 20
4.208534738870029
 30
0.0
 42
0.0658459605681562
  0
VERTEX
  5
FD
  8
SignTorch_-_ELEPHANT021_
 10
11.22109319913387
 20
3.988648423936632
 30
0.0
 42
0.054060950919127
  0
VERTEX
  5
FE
  8
SignTorch_-_ELEPHANT021_
 10
11.29442321865156
 20
3.829641659332373
 30
0.0
 42
-0.1131325561754821
  0
VERTEX
  5
FF
  8
SignTorch_-_ELEPHANT021_
 10
11.39504632413387
 20
3.520648423936631
 30
0.0
 42
0.0411278550041376
  0
VERTEX
  5
100
  8
SignTorch_-_ELEPHANT021_
 10
11.41588935498608
 20
3.400466073507822
 30
0.0
 42
0.5721537623257342
  0
VERTEX
  5
101
  8
SignTorch_-_ELEPHANT021_
 10
11.47430999600887
 20
3.383826158311631
 30
0.0
 42
0.2032428271831729
  0
VERTEX
  5
102
  8
SignTorch_-_ELEPHANT021_
 10
11.49371261502711
 20
3.4287292341518
 30
0.0
 42
0.0696030267936128
  0
VERTEX
  5
103
  8
SignTorch_-_ELEPHANT021_
 10
11.45504632413387
 20
3.719648423936632
 30
0.0
 42
0.0560196372610312
  0
VERTEX
  5
104
  8
SignTorch_-_ELEPHANT021_
 10
11.3846882483389
 20
3.894259092940725
 30
0.0
 42
-0.108026785027942
  0
VERTEX
  5
105
  8
SignTorch_-_ELEPHANT021_
 10
11.28820843350887
 20
4.230101548936632
 30
0.0
 42
-0.0187677719176644
  0
VERTEX
  5
106
  8
SignTorch_-_ELEPHANT021_
 10
11.28023128181647
 20
4.525548466765592
 30
0.0
 42
0.0628872535547813
  0
VERTEX
  5
107
  8
SignTorch_-_ELEPHANT021_
 10
11.24629632413387
 20
4.819148423936632
 30
0.0
 42
0.1040932128498029
  0
VERTEX
  5
108
  8
SignTorch_-_ELEPHANT021_
 10
11.08424041606185
 20
5.156246159400276
 30
0.0
 42
0.1053011310011029
  0
VERTEX
  5
109
  8
SignTorch_-_ELEPHANT021_
 10
10.80267132413387
 20
5.396023423936632
 30
0.0
 42
0.0427610247410594
  0
VERTEX
  5
10A
  8
SignTorch_-_ELEPHANT021_
 10
10.54532136248322
 20
5.507909064185962
 30
0.0
 42
-0.1211506777300772
  0
VERTEX
  5
10B
  8
SignTorch_-_ELEPHANT021_
 10
10.41760882413387
 20
5.589007798936631
 30
0.0
 42
-0.053729764649366
  0
VERTEX
  5
10C
  8
SignTorch_-_ELEPHANT021_
 10
10.36267928750636
 20
5.66029029069571
 30
0.0
 42
0.0836266761200546
  0
VERTEX
  5
10D
  8
SignTorch_-_ELEPHANT021_
 10
10.12647601163387
 20
5.931751939561631
 30
0.0
 42
0.050729403675424
  0
VERTEX
  5
10E
  8
SignTorch_-_ELEPHANT021_
 10
9.757523744431817
 20
6.176921132030285
 30
0.0
 42
0.0117597281469386
  0
VERTEX
  5
10F
  8
SignTorch_-_ELEPHANT021_
 10
9.163046324133873
 20
6.472648423936632
 30
0.0
 42
0.0429867421391513
  0
VERTEX
  5
110
  8
SignTorch_-_ELEPHANT021_
 10
8.829510615055911
 20
6.595220323523481
 30
0.0
 42
0.0607001743934494
  0
VERTEX
  5
111
  8
SignTorch_-_ELEPHANT021_
 10
8.580046324133873
 20
6.631648423936632
 30
0.0
 42
0.0536100703229714
  0
VERTEX
  5
112
  8
SignTorch_-_ELEPHANT021_
 10
8.020221021829872
 20
6.584868083770851
 30
0.0
 42
-0.0554310700732758
  0
VERTEX
  5
113
  8
SignTorch_-_ELEPHANT021_
 10
7.718686949133873
 20
6.560773423936631
 30
0.0
 42
-0.0832770641305709
  0
VERTEX
  5
114
  8
SignTorch_-_ELEPHANT021_
 10
7.506467967848403
 20
6.603170089050193
 30
0.0
 42
0.0695426905114532
  0
VERTEX
  5
115
  8
SignTorch_-_ELEPHANT021_
 10
7.295485777258873
 20
6.651345689561632
 30
0.0
 42
0.0192438937377358
  0
VERTEX
  5
116
  8
SignTorch_-_ELEPHANT021_
 10
7.1023610551342
 20
6.660457507228101
 30
0.0
 42
-0.0844292651335049
  0
VERTEX
  5
117
  8
SignTorch_-_ELEPHANT021_
 10
6.912046324133873
 20
6.694523423936631
 30
0.0
 42
-0.0054560633984132
  0
VERTEX
  5
118
  8
SignTorch_-_ELEPHANT021_
 10
6.796269978765628
 20
6.737639032359147
 30
0.0
 42
0.023081531031735
  0
VERTEX
  5
119
  8
SignTorch_-_ELEPHANT021_
 10
6.679046324133873
 20
6.776648423936631
 30
0.0
 42
-0.0531876600282348
  0
VERTEX
  5
11A
  8
SignTorch_-_ELEPHANT021_
 10
6.340178794444236
 20
6.91253523243268
 30
0.0
 42
0.0427895870210885
  0
VERTEX
  5
11B
  8
SignTorch_-_ELEPHANT021_
 10
6.159265074133873
 20
6.989476548936632
 30
0.0
 42
0.0821756538897681
  0
VERTEX
  5
11C
  8
SignTorch_-_ELEPHANT021_
 10
5.919193405790202
 20
7.026400700593288
 30
0.0
 42
0.2594302437844198
  0
VERTEX
  5
11D
  8
SignTorch_-_ELEPHANT021_
 10
5.616202574133873
 20
6.853304673936632
 30
0.0
 42
-0.1165420289380052
  0
VERTEX
  5
11E
  8
SignTorch_-_ELEPHANT021_
 10
5.545898502290608
 20
6.781684106501162
 30
0.0
 42
0.0884724673305546
  0
VERTEX
  5
11F
  8
SignTorch_-_ELEPHANT021_
 10
5.408171324133872
 20
6.656148423936632
 30
0.0
 42
0.0690962821763656
  0
VERTEX
  5
120
  8
SignTorch_-_ELEPHANT021_
 10
5.336530309670693
 20
6.530212891044039
 30
0.0
 42
-0.0334064708911975
  0
VERTEX
  5
121
  8
SignTorch_-_ELEPHANT021_
 10
5.220483824133873
 20
6.287523423936632
 30
0.0
 42
0.0306449591599987
  0
VERTEX
  5
122
  8
SignTorch_-_ELEPHANT021_
 10
5.148909388076316
 20
6.139936766144914
 30
0.0
 42
0.0484018564508821
  0
VERTEX
  5
123
  8
SignTorch_-_ELEPHANT021_
 10
5.118817808508872
 20
6.040388658311631
 30
0.0
 42
-0.1048961407455407
  0
VERTEX
  5
124
  8
SignTorch_-_ELEPHANT021_
 10
5.061556328184012
 20
5.907130793650695
 30
0.0
 42
-0.0087065376972232
  0
VERTEX
  5
125
  8
SignTorch_-_ELEPHANT021_
 10
4.878046324133873
 20
5.656648423936631
 30
0.0
 42
0.0254435583119536
  0
VERTEX
  5
126
  8
SignTorch_-_ELEPHANT021_
 10
4.600631141599361
 20
5.250128038220996
 30
0.0
 42
-0.0451306177085999
  0
VERTEX
  5
127
  8
SignTorch_-_ELEPHANT021_
 10
4.442751402258873
 20
5.037257798936631
 30
0.0
 42
-0.0902790328908122
  0
VERTEX
  5
128
  8
SignTorch_-_ELEPHANT021_
 10
4.296725223041902
 20
4.923368954492117
 30
0.0
 42
-0.2560438240620855
  0
VERTEX
  5
129
  8
SignTorch_-_ELEPHANT021_
 10
4.019046324133873
 20
4.928648423936631
 30
0.0
 42
-0.1778037045398815
  0
VERTEX
  5
12A
  8
SignTorch_-_ELEPHANT021_
 10
3.810482302177748
 20
5.177000057766765
 30
0.0
 42
-0.1623641960600986
  0
VERTEX
  5
12B
  8
SignTorch_-_ELEPHANT021_
 10
3.801759214758873
 20
5.530234361436632
 30
0.0
 42
-0.0451989226197044
  0
VERTEX
  5
12C
  8
SignTorch_-_ELEPHANT021_
 10
3.907595342248376
 20
5.789501859493029
 30
0.0
 42
0.050579055112851
  0
VERTEX
  5
12D
  8
SignTorch_-_ELEPHANT021_
 10
4.010642027258873
 20
6.049890611436631
 30
0.0
 42
0.071925737015048
  0
VERTEX
  5
12E
  8
SignTorch_-_ELEPHANT021_
 10
4.050236207435526
 20
6.347751042169418
 30
0.0
 42
0.015679604963618
  0
VERTEX
  5
12F
  8
SignTorch_-_ELEPHANT021_
 10
4.040046324133873
 20
6.585648423936632
 30
0.0
 42
0.0670362659318759
  0
VERTEX
  5
130
  8
SignTorch_-_ELEPHANT021_
 10
4.016870794329733
 20
6.695438288508575
 30
0.0
 42
0.3559544825050683
  0
VERTEX
  5
131
  8
SignTorch_-_ELEPHANT021_
 10
3.901046324133873
 20
6.765648423936632
 30
0.0
 42
0.1205292084256539
  0
VERTEX
  5
132
  8
SignTorch_-_ELEPHANT021_
 10
3.726489430775037
 20
6.696152484645613
 30
0.0
 42
0.2530291173457385
  0
VERTEX
  5
133
  8
SignTorch_-_ELEPHANT021_
 10
3.685126402258874
 20
6.611894517686631
 30
0.0
 42
0.2011374800931024
  0
VERTEX
  5
134
  8
SignTorch_-_ELEPHANT021_
 10
3.744985022069826
 20
6.483511266543856
 30
0.0
 42
-0.1212375965952249
  0
VERTEX
  5
135
  8
SignTorch_-_ELEPHANT021_
 10
3.787597105383873
 20
6.420138658311632
 30
0.0
 42
-0.1166488351916758
  0
VERTEX
  5
136
  8
SignTorch_-_ELEPHANT021_
 10
3.798462280408369
 20
6.328816318238983
 30
0.0
 42
-0.0761509861018643
  0
VERTEX
  5
137
  8
SignTorch_-_ELEPHANT021_
 10
3.710452574133873
 20
6.005585923936631
 30
0.0
 42
-0.0170402384287079
  0
VERTEX
  5
138
  8
SignTorch_-_ELEPHANT021_
 10
3.60857253155193
 20
5.79570962310804
 30
0.0
 42
0.0625136437503131
  0
VERTEX
  5
139
  8
SignTorch_-_ELEPHANT021_
 10
3.526140074133873
 20
5.577460923936632
 30
0.0
 42
0.0970738733430205
  0
VERTEX
  5
13A
  8
SignTorch_-_ELEPHANT021_
 10
3.509290689028965
 20
5.183371885850546
 30
0.0
 42
0.0957101089856331
  0
VERTEX
  5
13B
  8
SignTorch_-_ELEPHANT021_
 10
3.643296324133873
 20
4.806523423936632
 30
0.0
 42
0.1289609435674302
  0
VERTEX
  5
13C
  8
SignTorch_-_ELEPHANT021_
 10
3.939935483942403
 20
4.5120111793097
 30
0.0
 42
0.153059353289084
  0
VERTEX
  5
13D
  8
SignTorch_-_ELEPHANT021_
 10
4.285821714758873
 20
4.434107408311632
 30
0.0
 42
0.1065149928736576
  0
VERTEX
  5
13E
  8
SignTorch_-_ELEPHANT021_
 10
4.617323491721639
 20
4.534643442028723
 30
0.0
 42
0.0407039620982815
  0
VERTEX
  5
13F
  8
SignTorch_-_ELEPHANT021_
 10
4.947671324133872
 20
4.754898423936631
 30
0.0
 42
0.0171449761548459
  0
VERTEX
  5
140
  8
SignTorch_-_ELEPHANT021_
 10
5.143077482689772
 20
4.920726769434362
 30
0.0
 42
-0.0316761502238411
  0
VERTEX
  5
141
  8
SignTorch_-_ELEPHANT021_
 10
5.250849436915455
 20
5.006929333089024
 30
0.0
 42
-0.766720347716724
  0
VERTEX
  5
142
  8
SignTorch_-_ELEPHANT021_
 10
5.258698415007549
 20
5.000359607526969
 30
0.0
 42
0.0139076748024071
  0
VERTEX
  5
143
  8
SignTorch_-_ELEPHANT021_
 10
5.245046324133873
 20
4.968648423936632
 30
0.0
 42
0.0134098320141048
  0
VERTEX
  5
144
  8
SignTorch_-_ELEPHANT021_
 10
5.195469913857909
 20
4.833630090542087
 30
0.0
 42
0.434466223266062
  0
VERTEX
  5
145
  8
SignTorch_-_ELEPHANT021_
 10
5.224046324133873
 20
4.780648423936632
 30
0.0
 42
0.2950798816030298
  0
VERTEX
  5
146
  8
SignTorch_-_ELEPHANT021_
 10
5.274397678075937
 20
4.797191428932626
 30
0.0
 42
-0.0499146798902943
  0
VERTEX
  5
147
  8
SignTorch_-_ELEPHANT021_
 10
5.420046324133873
 20
4.944648423936632
 30
0.0
 42
0.0075920098246446
  0
VERTEX
  5
148
  8
SignTorch_-_ELEPHANT021_
 10
5.553578328638628
 20
5.058729367577327
 30
0.0
 42
-0.2007742575606245
  0
VERTEX
  5
149
  8
SignTorch_-_ELEPHANT021_
 10
5.684733824133873
 20
5.103054673936631
 30
0.0
 42
0.0848439921738319
  0
VERTEX
  5
14A
  8
SignTorch_-_ELEPHANT021_
 10
5.854704951879254
 20
5.119921804906697
 30
0.0
 42
0.0341472064253974
  0
VERTEX
  5
14B
  8
SignTorch_-_ELEPHANT021_
 10
6.034046324133873
 20
5.182648423936631
 30
0.0
 42
0.0057899901969594
  0
VERTEX
  5
14C
  8
SignTorch_-_ELEPHANT021_
 10
6.14072238592615
 20
5.22981561587968
 30
0.0
 42
-0.1673281255599333
  0
VERTEX
  5
14D
  8
SignTorch_-_ELEPHANT021_
 10
6.170046324133873
 20
5.232648423936632
 30
0.0
 42
-0.1946106599671627
  0
VERTEX
  5
14E
  8
SignTorch_-_ELEPHANT021_
 10
6.199102534131059
 20
5.211918282572714
 30
0.0
 42
0.101438430484387
  0
VERTEX
  5
14F
  8
SignTorch_-_ELEPHANT021_
 10
6.298046324133873
 20
5.109648423936632
 30
0.0
 42
0.0197985797216962
  0
VERTEX
  5
150
  8
SignTorch_-_ELEPHANT021_
 10
6.380474099845688
 20
5.057953207856502
 30
0.0
 42
-0.2238349324108472
  0
VERTEX
  5
151
  8
SignTorch_-_ELEPHANT021_
 10
6.419124449133873
 20
5.002632798936632
 30
0.0
 42
-0.0447647020720464
  0
VERTEX
  5
152
  8
SignTorch_-_ELEPHANT021_
 10
6.428522874742837
 20
4.885327013433384
 30
0.0
 42
0.1022133122181523
  0
VERTEX
  5
153
  8
SignTorch_-_ELEPHANT021_
 10
6.470671324133873
 20
4.671023423936632
 30
0.0
 42
-0.0492132578945487
  0
VERTEX
  5
154
  8
SignTorch_-_ELEPHANT021_
 10
6.536086557861322
 20
4.45923098208142
 30
0.0
 42
-0.2188338990837826
  0
VERTEX
  5
155
  8
SignTorch_-_ELEPHANT021_
 10
6.524224058508873
 20
4.408488267686632
 30
0.0
 42
-0.0565812769182022
  0
VERTEX
  5
156
  8
SignTorch_-_ELEPHANT021_
 10
6.4922933371429
 20
4.375793142898366
 30
0.0
 42
0.0659803876057317
  0
VERTEX
  5
157
  8
SignTorch_-_ELEPHANT021_
 10
6.367046324133873
 20
4.242648423936632
 30
0.0
 42
0.0489295388039781
  0
VERTEX
  5
158
  8
SignTorch_-_ELEPHANT021_
 10
6.239891558276657
 20
4.023268569995522
 30
0.0
 42
-0.0679048620287479
  0
VERTEX
  5
159
  8
SignTorch_-_ELEPHANT021_
 10
6.104532652258873
 20
3.808853502061632
 30
0.0
 42
-0.0179894578640158
  0
VERTEX
  5
15A
  8
SignTorch_-_ELEPHANT021_
 10
5.975904778682411
 20
3.666471134190502
 30
0.0
 42
0.0561673704018007
  0
VERTEX
  5
15B
  8
SignTorch_-_ELEPHANT021_
 10
5.858495542883873
 20
3.514705064561631
 30
0.0
 42
0.140506683004067
  0
VERTEX
  5
15C
  8
SignTorch_-_ELEPHANT021_
 10
5.755092976113729
 20
3.136742738837267
 30
0.0
 42
-0.0673447065899054
  0
VERTEX
  5
15D
  8
SignTorch_-_ELEPHANT021_
 10
5.729315855383873
 20
2.927103502061632
 30
0.0
 42
-0.0844820955291827
  0
VERTEX
  5
15E
  8
SignTorch_-_ELEPHANT021_
 10
5.651854797889337
 20
2.75613037972321
 30
0.0
 42
0.0629374402104441
  0
VERTEX
  5
15F
  8
SignTorch_-_ELEPHANT021_
 10
5.567140074133873
 20
2.588632798936632
 30
0.0
 42
0.1317669895043352
  0
VERTEX
  5
160
  8
SignTorch_-_ELEPHANT021_
 10
5.558227338332545
 20
2.478178133694572
 30
0.0
 42
0.1678961688515514
  0
VERTEX
  5
161
  8
SignTorch_-_ELEPHANT021_
 10
5.601456480383873
 20
2.401650377061631
 30
0.0
 42
0.1910028988174202
  0
VERTEX
  5
162
  8
SignTorch_-_ELEPHANT021_
 10
5.768920908042097
 20
2.341193844603302
 30
0.0
 42
0.1164543429379723
  0
VERTEX
  5
163
  8
SignTorch_-_ELEPHANT021_
 10
6.044671324133873
 20
2.415398423936632
 30
0.0
 42
0.1224585052512997
  0
VERTEX
  5
164
  8
SignTorch_-_ELEPHANT021_
 10
6.166683778010918
 20
2.5264584553465
 30
0.0
 42
0.1221958304729195
  0
VERTEX
  5
165
  8
SignTorch_-_ELEPHANT021_
 10
6.222671324133874
 20
2.682023423936632
 30
0.0
 42
0.0129125944273716
  0
VERTEX
  5
166
  8
SignTorch_-_ELEPHANT021_
 10
6.251184739872631
 20
3.054237167613077
 30
0.0
 42
-0.1628895827734983
  0
VERTEX
  5
167
  8
SignTorch_-_ELEPHANT021_
 10
6.285546324133873
 20
3.141898423936631
 30
0.0
 42
-0.0594682922416148
  0
VERTEX
  5
168
  8
SignTorch_-_ELEPHANT021_
 10
6.332999830643047
 20
3.186594351225394
 30
0.0
 42
-0.0186821931352373
  0
VERTEX
  5
169
  8
SignTorch_-_ELEPHANT021_
 10
6.503796324133873
 20
3.303273423936631
 30
0.0
 42
-0.011975073482556
  0
VERTEX
  5
16A
  8
SignTorch_-_ELEPHANT021_
 10
6.601560653334814
 20
3.361612946359716
 30
0.0
 42
0.0418386544788631
  0
VERTEX
  5
16B
  8
SignTorch_-_ELEPHANT021_
 10
6.695671324133873
 20
3.425679673936632
 30
0.0
 42
0.0156912478797456
  0
VERTEX
  5
16C
  8
SignTorch_-_ELEPHANT021_
 10
6.825237166138955
 20
3.537655882445685
 30
0.0
 42
-0.0992537362974519
  0
VERTEX
  5
16D
  8
SignTorch_-_ELEPHANT021_
 10
6.861921324133873
 20
3.559957017686632
 30
0.0
 42
-0.3636620089826195
  0
VERTEX
  5
16E
  8
SignTorch_-_ELEPHANT021_
 10
6.89335048138656
 20
3.548512180511344
 30
0.0
 42
-0.0598537129410877
  0
VERTEX
  5
16F
  8
SignTorch_-_ELEPHANT021_
 10
6.964229917883872
 20
3.382912095811631
 30
0.0
 42
-0.0252661573182842
  0
VERTEX
  5
170
  8
SignTorch_-_ELEPHANT021_
 10
7.041174263675474
 20
3.0605937639093
 30
0.0
 42
0.0594568016456803
  0
VERTEX
  5
171
  8
SignTorch_-_ELEPHANT021_
 10
7.139921324133873
 20
2.744273423936632
 30
0.0
 42
-0.0273784675534371
  0
VERTEX
  5
172
  8
SignTorch_-_ELEPHANT021_
 10
7.224009165994096
 20
2.525282192973196
 30
0.0
 42
-0.149927567549391
  0
VERTEX
  5
173
  8
SignTorch_-_ELEPHANT021_
 10
7.224632261633873
 20
2.481519517686632
 30
0.0
 42
-0.1691532524170992
  0
VERTEX
  5
174
  8
SignTorch_-_ELEPHANT021_
 10
7.188582243280194
 20
2.430866131548822
 30
0.0
 42
0.0308158514182926
  0
VERTEX
  5
175
  8
SignTorch_-_ELEPHANT021_
 10
7.099046324133873
 20
2.358648423936632
 30
0.0
 42
0.1228700034817646
  0
VERTEX
  5
176
  8
SignTorch_-_ELEPHANT021_
 10
7.030548420375402
 20
2.255438859322941
 30
0.0
 42
0.3067239862867377
  0
VERTEX
  5
177
  8
SignTorch_-_ELEPHANT021_
 10
7.058974058508872
 20
2.145859361436631
 30
0.0
 42
0.1159259797351354
  0
VERTEX
  5
178
  8
SignTorch_-_ELEPHANT021_
 10
7.151554473210217
 20
2.096366897147356
 30
0.0
 42
0.0775391801230828
  0
VERTEX
  5
179
  8
SignTorch_-_ELEPHANT021_
 10
7.396561949133872
 20
2.070460923936632
 30
0.0
 42
0.1223921820064083
  0
VERTEX
  5
17A
  8
SignTorch_-_ELEPHANT021_
 10
7.577733434220034
 20
2.125116787315796
 30
0.0
 42
0.2101343680357093
  0
VERTEX
  5
17B
  8
SignTorch_-_ELEPHANT021_
 10
7.643614683508872
 20
2.217402330186632
 30
0.0
 42
0.0331878050956732
  0
VERTEX
  5
17C
  8
SignTorch_-_ELEPHANT021_
 10
7.662723781388979
 20
2.353603233231043
 30
0.0
 42
-0.0151038966971581
  0
VERTEX
  5
17D
  8
SignTorch_-_ELEPHANT021_
 10
7.689046324133872
 20
2.607648423936631
 30
0.0
 42
0.0393653082842489
  0
VERTEX
  5
17E
  8
SignTorch_-_ELEPHANT021_
 10
7.704899085430448
 20
2.896850504717833
 30
0.0
 42
0.0495654576727903
  0
VERTEX
  5
17F
  8
SignTorch_-_ELEPHANT021_
 10
7.676655699133873
 20
3.125351548936632
 30
0.0
 42
-0.0086302184434276
  0
VERTEX
  5
180
  8
SignTorch_-_ELEPHANT021_
 10
7.637586071879741
 20
3.313475882407992
 30
0.0
 42
-0.0519817503419989
  0
VERTEX
  5
181
  8
SignTorch_-_ELEPHANT021_
 10
7.628306089758872
 20
3.424169908311632
 30
0.0
 42
-0.0267771130035776
  0
VERTEX
  5
182
  8
SignTorch_-_ELEPHANT021_
 10
7.642570210098335
 20
3.617171857289638
 30
0.0
 42
0.0521386043976748
  0
VERTEX
  5
183
  8
SignTorch_-_ELEPHANT021_
 10
7.647046324133874
 20
3.810648423936631
 30
0.0
 42
-0.0600148298120267
  0
VERTEX
  5
184
  8
SignTorch_-_ELEPHANT021_
 10
7.649517738865616
 20
3.874256853983987
 30
0.0
 42
-0.3911468196535162
  0
VERTEX
  5
185
  8
SignTorch_-_ELEPHANT021_
 10
7.679067808508873
 20
3.897494127061632
 30
0.0
 42
-0.0855491893831035
  0
VERTEX
  5
186
  8
SignTorch_-_ELEPHANT021_
 10
7.736785327708101
 20
3.882755761457104
 30
0.0
 42
-0.0148745378490004
  0
VERTEX
  5
187
  8
SignTorch_-_ELEPHANT021_
 10
8.043046324133872
 20
3.734648423936632
 30
0.0
 42
0.0237465409487761
  0
VERTEX
  5
188
  8
SignTorch_-_ELEPHANT021_
 10
8.278239678159922
 20
3.626013352582817
 30
0.0
 42
0.0606958808117037
  0
VERTEX
  5
189
  8
SignTorch_-_ELEPHANT021_
 10
8.499093199133872
 20
3.566320298936632
 30
0.0
 42
0.0227951752071768
  0
VERTEX
  5
18A
  8
SignTorch_-_ELEPHANT021_
 10
8.702763871907306
 20
3.546471097312892
 30
0.0
 42
0.0446708582611353
  0
VERTEX
  5
18B
  8
SignTorch_-_ELEPHANT021_
 10
8.916171324133872
 20
3.554523423936631
 30
0.0
 42
-0.0268665516700419
  0
VERTEX
  5
18C
  8
SignTorch_-_ELEPHANT021_
 10
9.02384922388687
 20
3.562427831800045
 30
0.0
 42
-0.1740393427021911
  0
VERTEX
  5
18D
  8
SignTorch_-_ELEPHANT021_
 10
9.140952574133873
 20
3.522960923936632
 30
0.0
 42
-0.0499840184405171
  0
VERTEX
  5
18E
  8
SignTorch_-_ELEPHANT021_
 10
9.220040176846227
 20
3.446336259724047
 30
0.0
 42
-0.0230514207351819
  0
VERTEX
  5
18F
  8
SignTorch_-_ELEPHANT021_
 10
9.365253355383873
 20
3.257378892686631
 30
0.0
 42
-0.0717826762042107
  0
VERTEX
  5
190
  8
SignTorch_-_ELEPHANT021_
 10
9.431935690762758
 20
3.124735487775136
 30
0.0
 42
-0.0812177231672091
  0
VERTEX
  5
191
  8
SignTorch_-_ELEPHANT021_
 10
9.45292523038387
 20
2.995019517686631
 30
0.0
 42
-0.0203558197796866
  0
VERTEX
  5
192
  8
SignTorch_-_ELEPHANT021_
 10
9.447555740613305
 20
2.86835073788495
 30
0.0
 42
0.0237519811812598
  0
VERTEX
  5
193
  8
SignTorch_-_ELEPHANT021_
 10
9.443046324133872
 20
2.741648423936632
 30
0.0
 42
0.0127658195672407
  0
VERTEX
  5
194
  8
SignTorch_-_ELEPHANT021_
 10
9.451438726200275
 20
2.517654981725813
 30
0.0
 42
-0.1549902291321328
  0
VERTEX
  5
195
  8
SignTorch_-_ELEPHANT021_
 10
9.413198667883874
 20
2.364417955186632
 30
0.0
 42
-0.0478406053886165
  0
VERTEX
  5
196
  8
SignTorch_-_ELEPHANT021_
 10
9.34666917422322
 20
2.276482786486842
 30
0.0
 42
0.164805264925544
  0
VERTEX
  5
197
  8
SignTorch_-_ELEPHANT021_
 10
9.30204632413387
 20
2.175648423936632
 30
0.0
 42
0.2636490574000607
  0
VERTEX
  5
198
  8
SignTorch_-_ELEPHANT021_
 10
9.36261668859644
 20
2.042033047387969
 30
0.0
 42
0.1701949853591561
  0
VERTEX
  5
199
  8
SignTorch_-_ELEPHANT021_
 10
9.685870542883873
 20
1.944703111436632
 30
0.0
 42
0.1243686954071957
  0
VERTEX
  5
19A
  8
SignTorch_-_ELEPHANT021_
 10
9.839597233989194
 20
1.990939890979762
 30
0.0
 42
0.1107461313797881
  0
VERTEX
  5
19B
  8
SignTorch_-_ELEPHANT021_
 10
9.969827574133873
 20
2.114773423936632
 30
0.0
 42
0.1689858145415138
  0
VERTEX
  5
19C
  8
SignTorch_-_ELEPHANT021_
 10
10.01072360152178
 20
2.271550219721013
 30
0.0
 42
-0.0953828572044343
  0
VERTEX
  5
19D
  8
SignTorch_-_ELEPHANT021_
 10
10.02035882413387
 20
2.358351548936632
 30
0.0
 42
-0.0441501654892671
  0
VERTEX
  5
19E
  8
SignTorch_-_ELEPHANT021_
 10
10.06721432036178
 20
2.472670140716181
 30
0.0
 42
0.1383420248044772
  0
VERTEX
  5
19F
  8
SignTorch_-_ELEPHANT021_
 10
10.09203655850887
 20
2.593699205186631
 30
0.0
 42
0.0706072399837353
  0
VERTEX
  5
1A0
  8
SignTorch_-_ELEPHANT021_
 10
10.0779996111394
 20
2.658402956109349
 30
0.0
 42
-0.0541515511259396
  0
VERTEX
  5
1A1
  8
SignTorch_-_ELEPHANT021_
 10
10.01340569913387
 20
2.915210923936632
 30
0.0
 42
-0.0167012631766274
  0
VERTEX
  5
1A2
  8
SignTorch_-_ELEPHANT021_
 10
9.987341246133505
 20
3.162964320972101
 30
0.0
 42
-0.0636346283285651
  0
VERTEX
  5
1A3
  8
SignTorch_-_ELEPHANT021_
 10
9.990993589758872
 20
3.228492173936632
 30
0.0
 42
-0.2190786669656725
  0
VERTEX
  5
1A4
  8
SignTorch_-_ELEPHANT021_
 10
10.01430264953939
 20
3.261551411001439
 30
0.0
 42
-0.1026678026275629
  0
VERTEX
  5
1A5
  8
SignTorch_-_ELEPHANT021_
 10
10.03679632413387
 20
3.269023423936631
 30
0.0
 42
-0.0264477608613752
  0
VERTEX
  5
1A6
  8
SignTorch_-_ELEPHANT021_
 10
10.15540013993397
 20
3.276530716360554
 30
0.0
 42
-0.1871835832584096
  0
VERTEX
  5
1A7
  8
SignTorch_-_ELEPHANT021_
 10
10.28004632413387
 20
3.229648423936631
 30
0.0
 42
-0.1147222595347919
  0
VERTEX
  5
1A8
  8
SignTorch_-_ELEPHANT021_
 10
10.38481497816965
 20
3.080546207752691
 30
0.0
 42
0.106838251458539
  0
VERTEX
  5
1A9
  8
SignTorch_-_ELEPHANT021_
 10
10.57504632413387
 20
2.800648423936632
 30
0.0
 42
0.002060070401132
  0
VERTEX
  5
1AA
  8
SignTorch_-_ELEPHANT021_
 10
10.64392236035461
 20
2.735593848042876
 30
0.0
 42
-0.003993527852851
  0
SEQEND
  5
1AB
  8
SignTorch_-_ELEPHANT021_
  0
ENDSEC
  0
EOF
