  0
SECTION
  2
HEADER
  9
$ACADVER
  1
AC1009
  9
$DWGCODEPAGE
  3
ansi_1252
  9
$INSBASE
 10
0.0
 20
0.0
 30
0.0
  9
$EXTMIN
 10
4.765754640893622
 20
0.5022116635710913
 30
0.0
  9
$EXTMAX
 10
10.19204998764895
 20
8.49336543823238
 30
0.0
  9
$LIMMIN
 10
0.0
 20
0.0
  9
$LIMMAX
 10
12.0
 20
9.0
  9
$ORTHOMODE
 70
     0
  9
$REGENMODE
 70
     1
  9
$FILLMODE
 70
     1
  9
$QTEXTMODE
 70
     0
  9
$MIRRTEXT
 70
     1
  9
$DRAGMODE
 70
     2
  9
$LTSCALE
 40
1.0
  9
$OSMODE
 70
    37
  9
$ATTMODE
 70
     1
  9
$TEXTSIZE
 40
0.2
  9
$TRACEWID
 40
0.05
  9
$TEXTSTYLE
  7
STANDARD
  9
$CLAYER
  8
0
  9
$CELTYPE
  6
BYLAYER
  9
$CECOLOR
 62
   256
  9
$DIMSCALE
 40
1.0
  9
$DIMASZ
 40
0.18
  9
$DIMEXO
 40
0.0625
  9
$DIMDLI
 40
0.38
  9
$DIMRND
 40
0.0
  9
$DIMDLE
 40
0.0
  9
$DIMEXE
 40
0.18
  9
$DIMTP
 40
0.0
  9
$DIMTM
 40
0.0
  9
$DIMTXT
 40
0.18
  9
$DIMCEN
 40
0.09
  9
$DIMTSZ
 40
0.0
  9
$DIMTOL
 70
     0
  9
$DIMLIM
 70
     0
  9
$DIMTIH
 70
     1
  9
$DIMTOH
 70
     1
  9
$DIMSE1
 70
     0
  9
$DIMSE2
 70
     0
  9
$DIMTAD
 70
     0
  9
$DIMZIN
 70
     0
  9
$DIMBLK
  1

  9
$DIMASO
 70
     1
  9
$DIMSHO
 70
     1
  9
$DIMPOST
  1

  9
$DIMAPOST
  1

  9
$DIMALT
 70
     0
  9
$DIMALTD
 70
     2
  9
$DIMALTF
 40
25.4
  9
$DIMLFAC
 40
1.0
  9
$DIMTOFL
 70
     0
  9
$DIMTVP
 40
0.0
  9
$DIMTIX
 70
     0
  9
$DIMSOXD
 70
     0
  9
$DIMSAH
 70
     0
  9
$DIMBLK1
  1

  9
$DIMBLK2
  1

  9
$DIMSTYLE
  2
STANDARD
  9
$DIMCLRD
 70
     0
  9
$DIMCLRE
 70
     0
  9
$DIMCLRT
 70
     0
  9
$DIMTFAC
 40
1.0
  9
$DIMGAP
 40
0.09
  9
$LUNITS
 70
     2
  9
$LUPREC
 70
     4
  9
$SKETCHINC
 40
0.1
  9
$FILLETRAD
 40
0.5
  9
$AUNITS
 70
     0
  9
$AUPREC
 70
     0
  9
$MENU
  1
.
  9
$ELEVATION
 40
0.0
  9
$PELEVATION
 40
0.0
  9
$THICKNESS
 40
0.0
  9
$LIMCHECK
 70
     0
  9
$CHAMFERA
 40
0.5
  9
$CHAMFERB
 40
0.5
  9
$SKPOLY
 70
     0
  9
$TDCREATE
 40
2454910.5
  9
$TDUPDATE
 40
2455562.35367169
  9
$TDINDWG
 40
0.0000000116
  9
$TDUSRTIMER
 40
0.0000000116
  9
$USRTIMER
 70
     1
  9
$ANGBASE
 50
0.0
  9
$ANGDIR
 70
     0
  9
$PDMODE
 70
     0
  9
$PDSIZE
 40
0.0
  9
$PLINEWID
 40
0.0
  9
$COORDS
 70
     1
  9
$SPLFRAME
 70
     0
  9
$SPLINETYPE
 70
     6
  9
$SPLINESEGS
 70
     8
  9
$ATTDIA
 70
     0
  9
$ATTREQ
 70
     1
  9
$HANDLING
 70
     1
  9
$HANDSEED
  5
3E2
  9
$SURFTAB1
 70
     6
  9
$SURFTAB2
 70
     6
  9
$SURFTYPE
 70
     6
  9
$SURFU
 70
     6
  9
$SURFV
 70
     6
  9
$UCSNAME
  2

  9
$UCSORG
 10
0.0
 20
0.0
 30
0.0
  9
$UCSXDIR
 10
1.0
 20
0.0
 30
0.0
  9
$UCSYDIR
 10
0.0
 20
1.0
 30
0.0
  9
$PUCSNAME
  2

  9
$PUCSORG
 10
0.0
 20
0.0
 30
0.0
  9
$PUCSXDIR
 10
1.0
 20
0.0
 30
0.0
  9
$PUCSYDIR
 10
0.0
 20
1.0
 30
0.0
  9
$USERI1
 70
     0
  9
$USERI2
 70
     0
  9
$USERI3
 70
     0
  9
$USERI4
 70
     0
  9
$USERI5
 70
     0
  9
$USERR1
 40
0.0
  9
$USERR2
 40
0.0
  9
$USERR3
 40
0.0
  9
$USERR4
 40
0.0
  9
$USERR5
 40
0.0
  9
$WORLDVIEW
 70
     1
  9
$SHADEDGE
 70
     3
  9
$SHADEDIF
 70
    70
  9
$TILEMODE
 70
     1
  9
$MAXACTVP
 70
    64
  9
$PLIMCHECK
 70
     0
  9
$PEXTMIN
 10
1.000000000000000E+20
 20
1.000000000000000E+20
 30
1.000000000000000E+20
  9
$PEXTMAX
 10
-1.000000000000000E+20
 20
-1.000000000000000E+20
 30
-1.000000000000000E+20
  9
$PLIMMIN
 10
0.0
 20
0.0
  9
$PLIMMAX
 10
12.0
 20
9.0
  9
$UNITMODE
 70
     0
  9
$VISRETAIN
 70
     1
  9
$PLINEGEN
 70
     0
  9
$PSLTSCALE
 70
     1
  0
ENDSEC
  0
SECTION
  2
TABLES
  0
TABLE
  2
VPORT
 70
     1
  0
VPORT
  2
*ACTIVE
 70
     0
 10
0.0
 20
0.0
 11
1.0
 21
1.0
 12
10.42990654205607
 22
4.5
 13
0.0
 23
0.0
 14
0.5
 24
0.5
 15
0.5
 25
0.5
 16
0.0
 26
0.0
 36
1.0
 17
0.0
 27
0.0
 37
0.0
 40
9.0
 41
1.972972972850329
 42
50.0
 43
0.0
 44
0.0
 50
0.0
 51
0.0
 71
     0
 72
   100
 73
     1
 74
     3
 75
     0
 76
     0
 77
     0
 78
     0
  0
ENDTAB
  0
TABLE
  2
LTYPE
 70
     2
  0
LTYPE
  2
CONTINUOUS
 70
     0
  3
Solid line
 72
    65
 73
     0
 40
0.0
  0
LTYPE
  2
CONTINUOUS2
 70
     0
  3
Solid Line
 72
    65
 73
     0
 40
0.0
  0
ENDTAB
  0
TABLE
  2
LAYER
 70
     2
  0
LAYER
  2
0
 70
     0
 62
     7
  6
CONTINUOUS
  0
LAYER
  2
SignTorch_HUMMINGBIRD006-
 70
     0
 62
    18
  6
CONTINUOUS
  0
ENDTAB
  0
TABLE
  2
STYLE
 70
     1
  0
STYLE
  2
STANDARD
 70
     0
 40
0.0
 41
1.0
 50
0.0
 71
     0
 42
0.2
  3
txt
  4

  0
ENDTAB
  0
TABLE
  2
VIEW
 70
     0
  0
ENDTAB
  0
TABLE
  2
UCS
 70
     0
  0
ENDTAB
  0
TABLE
  2
APPID
 70
     1
  0
APPID
  2
ACAD
 70
     0
  0
ENDTAB
  0
TABLE
  2
DIMSTYLE
 70
     1
  0
DIMSTYLE
  2
STANDARD
 70
     0
  3

  4

  5

  6

  7

 40
1.0
 41
0.18
 42
0.0625
 43
0.38
 44
0.18
 45
0.0
 46
0.0
 47
0.0
 48
0.0
140
0.18
141
0.09
142
0.0
143
25.4
144
1.0
145
0.0
146
1.0
147
0.09
 71
     0
 72
     0
 73
     1
 74
     1
 75
     0
 76
     0
 77
     0
 78
     0
170
     0
171
     2
172
     0
173
     0
174
     0
175
     0
176
     0
177
     0
178
     0
  0
ENDTAB
  0
ENDSEC
  0
SECTION
  2
BLOCKS
  0
BLOCK
  8
0
  2
$MODEL_SPACE
 70
     0
 10
0.0
 20
0.0
 30
0.0
  3
$MODEL_SPACE
  1

  0
ENDBLK
  5
21
  8
0
  0
BLOCK
 67
     1
  8
0
  2
$PAPER_SPACE
 70
     0
 10
0.0
 20
0.0
 30
0.0
  3
$PAPER_SPACE
  1

  0
ENDBLK
  5
1D
 67
     1
  8
0
  0
ENDSEC
  0
SECTION
  2
ENTITIES
  0
POLYLINE
  5
41
  8
SignTorch_HUMMINGBIRD006-
 66
     1
 10
0.0
 20
0.0
 30
0.0
 70
     1
  0
VERTEX
  5
72
  8
SignTorch_HUMMINGBIRD006-
 10
8.253634073250824
 20
6.735266214370728
 30
0.0
 42
0.0203661113834643
  0
VERTEX
  5
73
  8
SignTorch_HUMMINGBIRD006-
 10
8.063269937269844
 20
6.313751229893017
 30
0.0
 42
0.0129444830942085
  0
VERTEX
  5
74
  8
SignTorch_HUMMINGBIRD006-
 10
7.808634073250824
 20
5.632266214370727
 30
0.0
 42
-0.0494286999510896
  0
VERTEX
  5
75
  8
SignTorch_HUMMINGBIRD006-
 10
7.733582848724211
 20
5.468825633440816
 30
0.0
 42
-0.1766129816253335
  0
VERTEX
  5
76
  8
SignTorch_HUMMINGBIRD006-
 10
7.693712930672699
 20
5.435790384292602
 30
0.0
 42
-0.2301720309432872
  0
VERTEX
  5
77
  8
SignTorch_HUMMINGBIRD006-
 10
7.637116905832749
 20
5.442050353133145
 30
0.0
 42
0.0328547857749759
  0
VERTEX
  5
78
  8
SignTorch_HUMMINGBIRD006-
 10
7.439884073250823
 20
5.549016214370727
 30
0.0
 42
0.063461917294578
  0
VERTEX
  5
79
  8
SignTorch_HUMMINGBIRD006-
 10
7.199671713048049
 20
5.624508111826557
 30
0.0
 42
0.1894800894740462
  0
VERTEX
  5
7A
  8
SignTorch_HUMMINGBIRD006-
 10
6.835805948250824
 20
5.551969339370729
 30
0.0
 42
0.159608206853187
  0
VERTEX
  5
7B
  8
SignTorch_HUMMINGBIRD006-
 10
6.66444648205629
 20
5.341339669625094
 30
0.0
 42
0.1733358400873521
  0
VERTEX
  5
7C
  8
SignTorch_HUMMINGBIRD006-
 10
6.658634073250823
 20
5.090266214370727
 30
0.0
 42
0.0551570851420226
  0
VERTEX
  5
7D
  8
SignTorch_HUMMINGBIRD006-
 10
6.684512631648544
 20
5.033886557934851
 30
0.0
 42
-0.1665255863699699
  0
VERTEX
  5
7E
  8
SignTorch_HUMMINGBIRD006-
 10
6.691509073250823
 20
5.001141214370728
 30
0.0
 42
-0.0832151713715159
  0
VERTEX
  5
7F
  8
SignTorch_HUMMINGBIRD006-
 10
6.675912547516813
 20
4.948019245519502
 30
0.0
 42
0.0216322347468037
  0
VERTEX
  5
80
  8
SignTorch_HUMMINGBIRD006-
 10
6.588102823250824
 20
4.745078714370727
 30
0.0
 42
0.031954503959391
  0
VERTEX
  5
81
  8
SignTorch_HUMMINGBIRD006-
 10
6.483880397245931
 20
4.40960443976265
 30
0.0
 42
0.1815264621873441
  0
VERTEX
  5
82
  8
SignTorch_HUMMINGBIRD006-
 10
6.491634073250824
 20
4.346266214370727
 30
0.0
 42
0.5202622837867386
  0
VERTEX
  5
83
  8
SignTorch_HUMMINGBIRD006-
 10
6.523723030246425
 20
4.342058204366325
 30
0.0
 42
0.0601047908565116
  0
VERTEX
  5
84
  8
SignTorch_HUMMINGBIRD006-
 10
6.557634073250823
 20
4.389391214370727
 30
0.0
 42
0.0286358955548044
  0
VERTEX
  5
85
  8
SignTorch_HUMMINGBIRD006-
 10
6.630661555077591
 20
4.54277620106691
 30
0.0
 42
-0.0723409487794689
  0
VERTEX
  5
86
  8
SignTorch_HUMMINGBIRD006-
 10
6.790509073250823
 20
4.814641214370727
 30
0.0
 42
-0.036420325802566
  0
VERTEX
  5
87
  8
SignTorch_HUMMINGBIRD006-
 10
6.864502023378193
 20
4.894264418531403
 30
0.0
 42
-0.2663152330245425
  0
VERTEX
  5
88
  8
SignTorch_HUMMINGBIRD006-
 10
6.922915323250823
 20
4.907859964370727
 30
0.0
 42
-0.1116188589078952
  0
VERTEX
  5
89
  8
SignTorch_HUMMINGBIRD006-
 10
7.004662901928094
 20
4.861683014410783
 30
0.0
 42
0.0336681127123891
  0
VERTEX
  5
8A
  8
SignTorch_HUMMINGBIRD006-
 10
7.298509073250824
 20
4.629266214370727
 30
0.0
 42
0.0593113201332287
  0
VERTEX
  5
8B
  8
SignTorch_HUMMINGBIRD006-
 10
7.610171485805299
 20
4.465661391500946
 30
0.0
 42
0.1784974538787641
  0
VERTEX
  5
8C
  8
SignTorch_HUMMINGBIRD006-
 10
8.127348917000823
 20
4.459639261245727
 30
0.0
 42
0.0534817214411943
  0
VERTEX
  5
8D
  8
SignTorch_HUMMINGBIRD006-
 10
8.35539013080142
 20
4.569371979564032
 30
0.0
 42
-0.122056114861298
  0
VERTEX
  5
8E
  8
SignTorch_HUMMINGBIRD006-
 10
8.485180948250823
 20
4.611297464370727
 30
0.0
 42
-0.1144706045554274
  0
VERTEX
  5
8F
  8
SignTorch_HUMMINGBIRD006-
 10
8.576963850615344
 20
4.596634670216486
 30
0.0
 42
-0.0439901516856596
  0
VERTEX
  5
90
  8
SignTorch_HUMMINGBIRD006-
 10
8.789759073250824
 20
4.487391214370728
 30
0.0
 42
-0.0191234324989667
  0
VERTEX
  5
91
  8
SignTorch_HUMMINGBIRD006-
 10
9.122851957452701
 20
4.259287547833795
 30
0.0
 42
0.036451980463904
  0
VERTEX
  5
92
  8
SignTorch_HUMMINGBIRD006-
 10
9.208059854500824
 20
4.205172464370728
 30
0.0
 42
0.0837811461216554
  0
VERTEX
  5
93
  8
SignTorch_HUMMINGBIRD006-
 10
9.27976728160184
 20
4.180948354766086
 30
0.0
 42
0.1284027631122196
  0
VERTEX
  5
94
  8
SignTorch_HUMMINGBIRD006-
 10
9.329384073250823
 20
4.185766214370727
 30
0.0
 42
0.0439024156617732
  0
VERTEX
  5
95
  8
SignTorch_HUMMINGBIRD006-
 10
9.395148599554613
 20
4.216723209132768
 30
0.0
 42
-0.0394298450072497
  0
VERTEX
  5
96
  8
SignTorch_HUMMINGBIRD006-
 10
9.460634073250823
 20
4.248266214370727
 30
0.0
 42
0.1263916081766137
  0
VERTEX
  5
97
  8
SignTorch_HUMMINGBIRD006-
 10
9.5143830957191
 20
4.286761196881646
 30
0.0
 42
-0.1071721531751589
  0
VERTEX
  5
98
  8
SignTorch_HUMMINGBIRD006-
 10
9.566634073250823
 20
4.327266214370727
 30
0.0
 42
0.0301712349450285
  0
VERTEX
  5
99
  8
SignTorch_HUMMINGBIRD006-
 10
9.646165924024745
 20
4.371360291009101
 30
0.0
 42
0.140301472834196
  0
VERTEX
  5
9A
  8
SignTorch_HUMMINGBIRD006-
 10
9.659384073250823
 20
4.386266214370727
 30
0.0
 42
0.0388694918859007
  0
VERTEX
  5
9B
  8
SignTorch_HUMMINGBIRD006-
 10
9.669100885030026
 20
4.41139472746562
 30
0.0
 42
-0.0841278107287549
  0
VERTEX
  5
9C
  8
SignTorch_HUMMINGBIRD006-
 10
9.716821573250822
 20
4.507922464370727
 30
0.0
 42
0.1224691151886097
  0
VERTEX
  5
9D
  8
SignTorch_HUMMINGBIRD006-
 10
9.74281032240964
 20
4.572376906149068
 30
0.0
 42
0.2325603873812384
  0
VERTEX
  5
9E
  8
SignTorch_HUMMINGBIRD006-
 10
9.730946573250822
 20
4.608484964370728
 30
0.0
 42
0.1127347211530904
  0
VERTEX
  5
9F
  8
SignTorch_HUMMINGBIRD006-
 10
9.670747558299785
 20
4.647225968808864
 30
0.0
 42
0.0405737821701249
  0
VERTEX
  5
A0
  8
SignTorch_HUMMINGBIRD006-
 10
9.261055948250824
 20
4.758938089370726
 30
0.0
 42
-0.0016268859158366
  0
VERTEX
  5
A1
  8
SignTorch_HUMMINGBIRD006-
 10
9.008929170656634
 20
4.806996557818445
 30
0.0
 42
-0.111719975997839
  0
VERTEX
  5
A2
  8
SignTorch_HUMMINGBIRD006-
 10
8.921009073250824
 20
4.845641214370728
 30
0.0
 42
-0.0250331689573671
  0
VERTEX
  5
A3
  8
SignTorch_HUMMINGBIRD006-
 10
8.864697323175653
 20
4.89180548776623
 30
0.0
 42
0.016514206967413
  0
VERTEX
  5
A4
  8
SignTorch_HUMMINGBIRD006-
 10
8.642634073250823
 20
5.080266214370727
 30
0.0
 42
-0.1438851338872831
  0
VERTEX
  5
A5
  8
SignTorch_HUMMINGBIRD006-
 10
8.62945412986059
 20
5.098952764151472
 30
0.0
 42
-0.2292678189386332
  0
VERTEX
  5
A6
  8
SignTorch_HUMMINGBIRD006-
 10
8.631259073250822
 20
5.113641214370728
 30
0.0
 42
-0.0496265227759421
  0
VERTEX
  5
A7
  8
SignTorch_HUMMINGBIRD006-
 10
8.677866628698606
 20
5.17220674192657
 30
0.0
 42
-0.0675779653302152
  0
VERTEX
  5
A8
  8
SignTorch_HUMMINGBIRD006-
 10
8.721227823250823
 20
5.206172464370727
 30
0.0
 42
0.244828508565436
  0
VERTEX
  5
A9
  8
SignTorch_HUMMINGBIRD006-
 10
8.79424988013535
 20
5.322373548139279
 30
0.0
 42
-0.2122900140235177
  0
VERTEX
  5
AA
  8
SignTorch_HUMMINGBIRD006-
 10
8.829634073250824
 20
5.387266214370727
 30
0.0
 42
0.016470863605566
  0
VERTEX
  5
AB
  8
SignTorch_HUMMINGBIRD006-
 10
8.898628928880001
 20
5.443766111726199
 30
0.0
 42
0.2404436467340572
  0
VERTEX
  5
AC
  8
SignTorch_HUMMINGBIRD006-
 10
8.931259073250823
 20
5.525516214370727
 30
0.0
 42
0.0870078788165793
  0
VERTEX
  5
AD
  8
SignTorch_HUMMINGBIRD006-
 10
8.918190879826097
 20
5.573530068423549
 30
0.0
 42
-0.2068913092687861
  0
VERTEX
  5
AE
  8
SignTorch_HUMMINGBIRD006-
 10
8.916634073250822
 20
5.623266214370727
 30
0.0
 42
-0.1931555619728896
  0
VERTEX
  5
AF
  8
SignTorch_HUMMINGBIRD006-
 10
8.96524550620542
 20
5.674581501678773
 30
0.0
 42
0.1729725814955552
  0
VERTEX
  5
B0
  8
SignTorch_HUMMINGBIRD006-
 10
9.015823526375822
 20
5.723959573745727
 30
0.0
 42
0.3611398080444127
  0
VERTEX
  5
B1
  8
SignTorch_HUMMINGBIRD006-
 10
8.994806216058947
 20
5.810487464283634
 30
0.0
 42
-0.3333074707375004
  0
VERTEX
  5
B2
  8
SignTorch_HUMMINGBIRD006-
 10
8.981188028328948
 20
5.856465677261353
 30
0.0
 42
-0.1912004616732794
  0
VERTEX
  5
B3
  8
SignTorch_HUMMINGBIRD006-
 10
9.001913095600765
 20
5.879469259890037
 30
0.0
 42
0.0973445637211365
  0
VERTEX
  5
B4
  8
SignTorch_HUMMINGBIRD006-
 10
9.099899698250825
 20
5.954531839370727
 30
0.0
 42
0.5490353090746204
  0
VERTEX
  5
B5
  8
SignTorch_HUMMINGBIRD006-
 10
9.064083090210657
 20
6.078536822156624
 30
0.0
 42
-0.2588850889016946
  0
VERTEX
  5
B6
  8
SignTorch_HUMMINGBIRD006-
 10
9.040846963875824
 20
6.102084573745728
 30
0.0
 42
-0.2957885615980058
  0
VERTEX
  5
B7
  8
SignTorch_HUMMINGBIRD006-
 10
9.050885597703294
 20
6.134185424901211
 30
0.0
 42
0.0579181082580297
  0
VERTEX
  5
B8
  8
SignTorch_HUMMINGBIRD006-
 10
9.141868448250824
 20
6.229422464370728
 30
0.0
 42
0.1186807537497643
  0
VERTEX
  5
B9
  8
SignTorch_HUMMINGBIRD006-
 10
9.165982804184837
 20
6.284814806856934
 30
0.0
 42
0.2877207109265977
  0
VERTEX
  5
BA
  8
SignTorch_HUMMINGBIRD006-
 10
9.129634073250823
 20
6.374266214370728
 30
0.0
 42
0.0484937661677334
  0
VERTEX
  5
BB
  8
SignTorch_HUMMINGBIRD006-
 10
9.078643980492922
 20
6.403978526552293
 30
0.0
 42
-0.405912945984877
  0
VERTEX
  5
BC
  8
SignTorch_HUMMINGBIRD006-
 10
9.066919229500822
 20
6.434305276870728
 30
0.0
 42
-0.1650536122542577
  0
VERTEX
  5
BD
  8
SignTorch_HUMMINGBIRD006-
 10
9.101736491718102
 20
6.473255452996278
 30
0.0
 42
0.0657642608222628
  0
VERTEX
  5
BE
  8
SignTorch_HUMMINGBIRD006-
 10
9.179087198250825
 20
6.531516214370727
 30
0.0
 42
0.1414367908201967
  0
VERTEX
  5
BF
  8
SignTorch_HUMMINGBIRD006-
 10
9.215499579675019
 20
6.596172127998544
 30
0.0
 42
0.3135622929493368
  0
VERTEX
  5
C0
  8
SignTorch_HUMMINGBIRD006-
 10
9.188809854500823
 20
6.663815042495727
 30
0.0
 42
0.1526053068461391
  0
VERTEX
  5
C1
  8
SignTorch_HUMMINGBIRD006-
 10
9.112133509517603
 20
6.686229637003396
 30
0.0
 42
-0.5225783404055292
  0
VERTEX
  5
C2
  8
SignTorch_HUMMINGBIRD006-
 10
9.086364542000823
 20
6.721858011245727
 30
0.0
 42
-0.109139169291804
  0
VERTEX
  5
C3
  8
SignTorch_HUMMINGBIRD006-
 10
9.117348696456142
 20
6.771906004220956
 30
0.0
 42
0.1253626692040581
  0
VERTEX
  5
C4
  8
SignTorch_HUMMINGBIRD006-
 10
9.171884073250823
 20
6.866641214370727
 30
0.0
 42
0.1783329427600641
  0
VERTEX
  5
C5
  8
SignTorch_HUMMINGBIRD006-
 10
9.16751626437157
 20
6.921089072763309
 30
0.0
 42
0.2302930337975525
  0
VERTEX
  5
C6
  8
SignTorch_HUMMINGBIRD006-
 10
9.134088174813325
 20
6.948404153823851
 30
0.0
 42
0.0718426895500145
  0
VERTEX
  5
C7
  8
SignTorch_HUMMINGBIRD006-
 10
9.067511602557705
 20
6.954342921247764
 30
0.0
 42
-0.5257250169658803
  0
VERTEX
  5
C8
  8
SignTorch_HUMMINGBIRD006-
 10
9.044753213875824
 20
6.983834573745728
 30
0.0
 42
-0.0871606853763524
  0
VERTEX
  5
C9
  8
SignTorch_HUMMINGBIRD006-
 10
9.095461981076127
 20
7.080135405246479
 30
0.0
 42
0.1443784720313595
  0
VERTEX
  5
CA
  8
SignTorch_HUMMINGBIRD006-
 10
9.134999307625824
 20
7.181535745620726
 30
0.0
 42
0.1570960738569112
  0
VERTEX
  5
CB
  8
SignTorch_HUMMINGBIRD006-
 10
9.126578698041543
 20
7.218051580702297
 30
0.0
 42
0.2183738494796834
  0
VERTEX
  5
CC
  8
SignTorch_HUMMINGBIRD006-
 10
9.103868448250823
 20
7.233672464370727
 30
0.0
 42
0.1879342594766865
  0
VERTEX
  5
CD
  8
SignTorch_HUMMINGBIRD006-
 10
9.032308435599791
 20
7.219239669940814
 30
0.0
 42
-0.0808047366440779
  0
VERTEX
  5
CE
  8
SignTorch_HUMMINGBIRD006-
 10
8.965337198250824
 20
7.190188089370727
 30
0.0
 42
-0.5617370576583696
  0
VERTEX
  5
CF
  8
SignTorch_HUMMINGBIRD006-
 10
8.938961990668773
 20
7.216050646155185
 30
0.0
 42
0.0176018998870051
  0
VERTEX
  5
D0
  8
SignTorch_HUMMINGBIRD006-
 10
8.964634073250823
 20
7.347266214370727
 30
0.0
 42
0.1055724698456958
  0
VERTEX
  5
D1
  8
SignTorch_HUMMINGBIRD006-
 10
8.958104825526094
 20
7.471855531510187
 30
0.0
 42
0.3672007079837305
  0
VERTEX
  5
D2
  8
SignTorch_HUMMINGBIRD006-
 10
8.924975870125824
 20
7.494727151870727
 30
0.0
 42
0.2346477165890298
  0
VERTEX
  5
D3
  8
SignTorch_HUMMINGBIRD006-
 10
8.85562082708548
 20
7.451192301316758
 30
0.0
 42
-0.0531379210311355
  0
VERTEX
  5
D4
  8
SignTorch_HUMMINGBIRD006-
 10
8.763509073250823
 20
7.331391214370727
 30
0.0
 42
-0.1049105339526634
  0
VERTEX
  5
D5
  8
SignTorch_HUMMINGBIRD006-
 10
8.737982003160102
 20
7.313923700259461
 30
0.0
 42
-0.4831972452265139
  0
VERTEX
  5
D6
  8
SignTorch_HUMMINGBIRD006-
 10
8.719194620125824
 20
7.324412698745726
 30
0.0
 42
-0.0829700928514083
  0
VERTEX
  5
D7
  8
SignTorch_HUMMINGBIRD006-
 10
8.719427467123886
 20
7.380004016910279
 30
0.0
 42
0.0508967688146705
  0
VERTEX
  5
D8
  8
SignTorch_HUMMINGBIRD006-
 10
8.734540323250823
 20
7.601766214370727
 30
0.0
 42
0.1101962177902359
  0
VERTEX
  5
D9
  8
SignTorch_HUMMINGBIRD006-
 10
8.717654224846635
 20
7.66703403571517
 30
0.0
 42
0.4849144783347889
  0
VERTEX
  5
DA
  8
SignTorch_HUMMINGBIRD006-
 10
8.670690713875825
 20
7.676315042495727
 30
0.0
 42
0.1154176777502048
  0
VERTEX
  5
DB
  8
SignTorch_HUMMINGBIRD006-
 10
8.659323769922617
 20
7.660825178859979
 30
0.0
 42
0.0179915017279543
  0
VERTEX
  5
DC
  8
SignTorch_HUMMINGBIRD006-
 10
8.615634073250822
 20
7.547266214370727
 30
0.0
 42
-0.0286307807607371
  0
VERTEX
  5
DD
  8
SignTorch_HUMMINGBIRD006-
 10
8.434117492458604
 20
7.103841156756906
 30
0.0
 42
-0.0047846334239736
  0
SEQEND
  5
DE
  8
SignTorch_HUMMINGBIRD006-
  0
POLYLINE
  5
42
  8
SignTorch_HUMMINGBIRD006-
 66
     1
 10
0.0
 20
0.0
 30
0.0
 70
     1
  0
VERTEX
  5
DF
  8
SignTorch_HUMMINGBIRD006-
 10
8.227634073250824
 20
6.927266214370727
 30
0.0
 42
0.0417849456689135
  0
VERTEX
  5
E0
  8
SignTorch_HUMMINGBIRD006-
 10
8.345740654674342
 20
7.314335697881599
 30
0.0
 42
0.2026635405099625
  0
VERTEX
  5
E1
  8
SignTorch_HUMMINGBIRD006-
 10
8.334384073250824
 20
7.374266214370727
 30
0.0
 42
0.4026448354360044
  0
VERTEX
  5
E2
  8
SignTorch_HUMMINGBIRD006-
 10
8.296382857391617
 20
7.382685920160633
 30
0.0
 42
0.0530552201464813
  0
VERTEX
  5
E3
  8
SignTorch_HUMMINGBIRD006-
 10
8.241337198250823
 20
7.340531839370727
 30
0.0
 42
0.007495194685286
  0
VERTEX
  5
E4
  8
SignTorch_HUMMINGBIRD006-
 10
8.194419788429029
 20
7.29462247802115
 30
0.0
 42
-0.6214649678553765
  0
VERTEX
  5
E5
  8
SignTorch_HUMMINGBIRD006-
 10
8.141634073250824
 20
7.312266214370728
 30
0.0
 42
-0.0878164163973915
  0
VERTEX
  5
E6
  8
SignTorch_HUMMINGBIRD006-
 10
8.143816251994561
 20
7.368089719727552
 30
0.0
 42
0.0505444308726452
  0
VERTEX
  5
E7
  8
SignTorch_HUMMINGBIRD006-
 10
8.169055948250822
 20
7.590000589370726
 30
0.0
 42
0.0708526791531964
  0
VERTEX
  5
E8
  8
SignTorch_HUMMINGBIRD006-
 10
8.159353282694777
 20
7.664668287920314
 30
0.0
 42
0.4605668604651627
  0
VERTEX
  5
E9
  8
SignTorch_HUMMINGBIRD006-
 10
8.118290323250823
 20
7.683844339370726
 30
0.0
 42
0.1670614813535788
  0
VERTEX
  5
EA
  8
SignTorch_HUMMINGBIRD006-
 10
8.066217367333772
 20
7.634610085976839
 30
0.0
 42
-0.0445129533096907
  0
VERTEX
  5
EB
  8
SignTorch_HUMMINGBIRD006-
 10
7.994462198250823
 20
7.522984964370727
 30
0.0
 42
-0.0694345215012482
  0
VERTEX
  5
EC
  8
SignTorch_HUMMINGBIRD006-
 10
7.975411370239141
 20
7.50444275175192
 30
0.0
 42
-0.5289944474400583
  0
VERTEX
  5
ED
  8
SignTorch_HUMMINGBIRD006-
 10
7.947634073250823
 20
7.514266214370728
 30
0.0
 42
-0.0825626405541905
  0
VERTEX
  5
EE
  8
SignTorch_HUMMINGBIRD006-
 10
7.942670780879113
 20
7.567495499425863
 30
0.0
 42
0.0623301970549889
  0
VERTEX
  5
EF
  8
SignTorch_HUMMINGBIRD006-
 10
7.931403604500823
 20
7.781004495620727
 30
0.0
 42
0.0460694491461043
  0
VERTEX
  5
F0
  8
SignTorch_HUMMINGBIRD006-
 10
7.9144044702507
 20
7.842595563044075
 30
0.0
 42
0.5373891390619028
  0
VERTEX
  5
F1
  8
SignTorch_HUMMINGBIRD006-
 10
7.850384073250823
 20
7.857127542495726
 30
0.0
 42
0.0941347152568401
  0
VERTEX
  5
F2
  8
SignTorch_HUMMINGBIRD006-
 10
7.837640171648499
 20
7.839279246500988
 30
0.0
 42
0.0136405574237023
  0
VERTEX
  5
F3
  8
SignTorch_HUMMINGBIRD006-
 10
7.778509073250824
 20
7.701375589370725
 30
0.0
 42
0.0012325235115583
  0
VERTEX
  5
F4
  8
SignTorch_HUMMINGBIRD006-
 10
7.759486189664879
 20
7.65309485700874
 30
0.0
 42
-0.7216244801291407
  0
VERTEX
  5
F5
  8
SignTorch_HUMMINGBIRD006-
 10
7.744259073250824
 20
7.653891214370727
 30
0.0
 42
-0.1129866494262219
  0
VERTEX
  5
F6
  8
SignTorch_HUMMINGBIRD006-
 10
7.742313497828479
 20
7.698751908973629
 30
0.0
 42
0.0733599882902888
  0
VERTEX
  5
F7
  8
SignTorch_HUMMINGBIRD006-
 10
7.748634073250823
 20
7.878141214370726
 30
0.0
 42
0.1336902545267601
  0
VERTEX
  5
F8
  8
SignTorch_HUMMINGBIRD006-
 10
7.723548201316952
 20
7.941491337891081
 30
0.0
 42
0.4743716873462267
  0
VERTEX
  5
F9
  8
SignTorch_HUMMINGBIRD006-
 10
7.670259073250824
 20
7.943734964370726
 30
0.0
 42
0.1192789257448941
  0
VERTEX
  5
FA
  8
SignTorch_HUMMINGBIRD006-
 10
7.639794252345646
 20
7.886559714952147
 30
0.0
 42
0.024147679973122
  0
VERTEX
  5
FB
  8
SignTorch_HUMMINGBIRD006-
 10
7.575884073250823
 20
7.577391214370727
 30
0.0
 42
-0.0117412837437626
  0
VERTEX
  5
FC
  8
SignTorch_HUMMINGBIRD006-
 10
7.546958555157349
 20
7.417562826614999
 30
0.0
 42
0.0125461682355631
  0
VERTEX
  5
FD
  8
SignTorch_HUMMINGBIRD006-
 10
7.518290323250823
 20
7.257688089370728
 30
0.0
 42
0.2583809602346102
  0
VERTEX
  5
FE
  8
SignTorch_HUMMINGBIRD006-
 10
7.547562826211382
 20
7.178325023242233
 30
0.0
 42
-0.0011678295549063
  0
VERTEX
  5
FF
  8
SignTorch_HUMMINGBIRD006-
 10
7.622634073250823
 20
7.113266214370726
 30
0.0
 42
-0.0832737983001234
  0
VERTEX
  5
100
  8
SignTorch_HUMMINGBIRD006-
 10
7.763312722977664
 20
6.942199554582942
 30
0.0
 42
-0.3707947270994965
  0
VERTEX
  5
101
  8
SignTorch_HUMMINGBIRD006-
 10
7.752805948250824
 20
6.887000589370727
 30
0.0
 42
-0.1921367003665529
  0
VERTEX
  5
102
  8
SignTorch_HUMMINGBIRD006-
 10
7.690075431356057
 20
6.868082821907468
 30
0.0
 42
-0.0262378673702128
  0
VERTEX
  5
103
  8
SignTorch_HUMMINGBIRD006-
 10
7.571009073250823
 20
6.884766214370728
 30
0.0
 42
0.0199916453696551
  0
VERTEX
  5
104
  8
SignTorch_HUMMINGBIRD006-
 10
7.48207398194099
 20
6.898361924849045
 30
0.0
 42
0.28366268204596
  0
VERTEX
  5
105
  8
SignTorch_HUMMINGBIRD006-
 10
7.444571573250824
 20
6.880656839370728
 30
0.0
 42
0.0874603873062697
  0
VERTEX
  5
106
  8
SignTorch_HUMMINGBIRD006-
 10
7.424611411144411
 20
6.833764883499043
 30
0.0
 42
0.022684971601073
  0
VERTEX
  5
107
  8
SignTorch_HUMMINGBIRD006-
 10
7.351040323250824
 20
6.435328714370728
 30
0.0
 42
0.0146875606499243
  0
VERTEX
  5
108
  8
SignTorch_HUMMINGBIRD006-
 10
7.330362417438957
 20
6.244358181941648
 30
0.0
 42
0.0070534473298359
  0
VERTEX
  5
109
  8
SignTorch_HUMMINGBIRD006-
 10
7.304634073250824
 20
5.845266214370727
 30
0.0
 42
-0.0149085135904403
  0
VERTEX
  5
10A
  8
SignTorch_HUMMINGBIRD006-
 10
7.29560536282298
 20
5.73277004529817
 30
0.0
 42
0.3294645786150165
  0
VERTEX
  5
10B
  8
SignTorch_HUMMINGBIRD006-
 10
7.339643838875824
 20
5.657024026870728
 30
0.0
 42
-0.0178831343372009
  0
VERTEX
  5
10C
  8
SignTorch_HUMMINGBIRD006-
 10
7.557572594415715
 20
5.553520429714394
 30
0.0
 42
0.075994109971444
  0
VERTEX
  5
10D
  8
SignTorch_HUMMINGBIRD006-
 10
7.614759073250823
 20
5.534094339370728
 30
0.0
 42
0.3588441584214195
  0
VERTEX
  5
10E
  8
SignTorch_HUMMINGBIRD006-
 10
7.69979610792451
 20
5.582028921619631
 30
0.0
 42
0.000274933717866
  0
VERTEX
  5
10F
  8
SignTorch_HUMMINGBIRD006-
 10
7.833634073250823
 20
5.929266214370728
 30
0.0
 42
0.0038676970198431
  0
VERTEX
  5
110
  8
SignTorch_HUMMINGBIRD006-
 10
7.938890420731915
 20
6.20924009270083
 30
0.0
 42
-0.0083174019436606
  0
VERTEX
  5
111
  8
SignTorch_HUMMINGBIRD006-
 10
8.046634073250823
 20
6.488266214370727
 30
0.0
 42
-0.0036463944878603
  0
VERTEX
  5
112
  8
SignTorch_HUMMINGBIRD006-
 10
8.137433651478595
 20
6.707642698062694
 30
0.0
 42
0.0050112405104207
  0
SEQEND
  5
113
  8
SignTorch_HUMMINGBIRD006-
  0
POLYLINE
  5
43
  8
SignTorch_HUMMINGBIRD006-
 66
     1
 10
0.0
 20
0.0
 30
0.0
 70
     1
  0
VERTEX
  5
114
  8
SignTorch_HUMMINGBIRD006-
 10
7.575634073250823
 20
6.941266214370728
 30
0.0
 42
0.0677619333587386
  0
VERTEX
  5
115
  8
SignTorch_HUMMINGBIRD006-
 10
7.677375323277227
 20
6.930747536044753
 30
0.0
 42
0.4324819619586225
  0
VERTEX
  5
116
  8
SignTorch_HUMMINGBIRD006-
 10
7.689891885750824
 20
6.944957620620728
 30
0.0
 42
0.1890977752461556
  0
VERTEX
  5
117
  8
SignTorch_HUMMINGBIRD006-
 10
7.671634643957134
 20
6.981074137319836
 30
0.0
 42
0.0543657171929301
  0
VERTEX
  5
118
  8
SignTorch_HUMMINGBIRD006-
 10
7.439930948250823
 20
7.146609964370727
 30
0.0
 42
0.1106522683250136
  0
VERTEX
  5
119
  8
SignTorch_HUMMINGBIRD006-
 10
7.098332311302574
 20
7.249035614473542
 30
0.0
 42
0.1323458034371291
  0
VERTEX
  5
11A
  8
SignTorch_HUMMINGBIRD006-
 10
6.804134073250824
 20
7.191766214370727
 30
0.0
 42
0.2110850503752176
  0
VERTEX
  5
11B
  8
SignTorch_HUMMINGBIRD006-
 10
6.659934427295197
 20
7.020327626360544
 30
0.0
 42
0.0969291739362448
  0
VERTEX
  5
11C
  8
SignTorch_HUMMINGBIRD006-
 10
6.648032510750824
 20
6.888436136245727
 30
0.0
 42
0.1466415998281753
  0
VERTEX
  5
11D
  8
SignTorch_HUMMINGBIRD006-
 10
6.664012573959057
 20
6.850048820711422
 30
0.0
 42
0.2151224564114357
  0
VERTEX
  5
11E
  8
SignTorch_HUMMINGBIRD006-
 10
6.690009073250823
 20
6.837125589370727
 30
0.0
 42
0.1418638232357937
  0
VERTEX
  5
11F
  8
SignTorch_HUMMINGBIRD006-
 10
6.750880600547528
 20
6.852299388853623
 30
0.0
 42
-0.0448209619980594
  0
VERTEX
  5
120
  8
SignTorch_HUMMINGBIRD006-
 10
6.977442667000824
 20
6.958010354995728
 30
0.0
 42
-0.0584738718273444
  0
VERTEX
  5
121
  8
SignTorch_HUMMINGBIRD006-
 10
7.176822199678871
 20
7.004728499616211
 30
0.0
 42
-0.0697711807594204
  0
VERTEX
  5
122
  8
SignTorch_HUMMINGBIRD006-
 10
7.348634073250824
 20
7.000266214370727
 30
0.0
 42
-0.0353843225068674
  0
VERTEX
  5
123
  8
SignTorch_HUMMINGBIRD006-
 10
7.462672912917264
 20
6.972839377155167
 30
0.0
 42
0.0171075141523799
  0
SEQEND
  5
124
  8
SignTorch_HUMMINGBIRD006-
  0
POLYLINE
  5
44
  8
SignTorch_HUMMINGBIRD006-
 66
     1
 10
0.0
 20
0.0
 30
0.0
 70
     1
  0
VERTEX
  5
125
  8
SignTorch_HUMMINGBIRD006-
 10
6.795634073250824
 20
7.960391214370726
 30
0.0
 42
-0.0820898946314824
  0
VERTEX
  5
126
  8
SignTorch_HUMMINGBIRD006-
 10
6.95562572459253
 20
8.338948521715388
 30
0.0
 42
0.0510203639848349
  0
VERTEX
  5
127
  8
SignTorch_HUMMINGBIRD006-
 10
7.001415323250824
 20
8.430969339370726
 30
0.0
 42
0.145463134072731
  0
VERTEX
  5
128
  8
SignTorch_HUMMINGBIRD006-
 10
7.004698728609012
 20
8.477219229785844
 30
0.0
 42
0.3157212668312889
  0
VERTEX
  5
129
  8
SignTorch_HUMMINGBIRD006-
 10
6.987727823250824
 20
8.492750589370726
 30
0.0
 42
0.1887241957301607
  0
VERTEX
  5
12A
  8
SignTorch_HUMMINGBIRD006-
 10
6.934754621269822
 20
8.479587229685178
 30
0.0
 42
0.0526932662190118
  0
VERTEX
  5
12B
  8
SignTorch_HUMMINGBIRD006-
 10
6.638850870125824
 20
8.219059183120727
 30
0.0
 42
0.1061191190712744
  0
VERTEX
  5
12C
  8
SignTorch_HUMMINGBIRD006-
 10
6.34714600974807
 20
7.723646908863224
 30
0.0
 42
0.1986723610452258
  0
VERTEX
  5
12D
  8
SignTorch_HUMMINGBIRD006-
 10
6.391509073250823
 20
7.104516214370728
 30
0.0
 42
0.1100602181138935
  0
VERTEX
  5
12E
  8
SignTorch_HUMMINGBIRD006-
 10
6.466241644340221
 20
7.012667297933974
 30
0.0
 42
0.2814688563625158
  0
VERTEX
  5
12F
  8
SignTorch_HUMMINGBIRD006-
 10
6.515259073250824
 20
7.006766214370728
 30
0.0
 42
0.1845041287233641
  0
VERTEX
  5
130
  8
SignTorch_HUMMINGBIRD006-
 10
6.542527019052082
 20
7.034498150319033
 30
0.0
 42
0.0279948603943937
  0
VERTEX
  5
131
  8
SignTorch_HUMMINGBIRD006-
 10
6.629009073250823
 20
7.267016214370727
 30
0.0
 42
0.0241325800273762
  0
VERTEX
  5
132
  8
SignTorch_HUMMINGBIRD006-
 10
6.717873725032697
 20
7.612369476345625
 30
0.0
 42
-0.0081145838876681
  0
SEQEND
  5
133
  8
SignTorch_HUMMINGBIRD006-
  0
POLYLINE
  5
45
  8
SignTorch_HUMMINGBIRD006-
 66
     1
 10
0.0
 20
0.0
 30
0.0
 70
     1
  0
VERTEX
  5
134
  8
SignTorch_HUMMINGBIRD006-
 10
5.919009073250823
 20
7.875516214370727
 30
0.0
 42
0.0013502235102853
  0
VERTEX
  5
135
  8
SignTorch_HUMMINGBIRD006-
 10
5.742052261089944
 20
8.116608126532327
 30
0.0
 42
0.189312126106924
  0
VERTEX
  5
136
  8
SignTorch_HUMMINGBIRD006-
 10
5.649165323250823
 20
8.174938089370727
 30
0.0
 42
0.4550692603154821
  0
VERTEX
  5
137
  8
SignTorch_HUMMINGBIRD006-
 10
5.558295884811826
 20
8.10330236641479
 30
0.0
 42
0.0539323764025314
  0
VERTEX
  5
138
  8
SignTorch_HUMMINGBIRD006-
 10
5.570634073250823
 20
7.893266214370726
 30
0.0
 42
0.0285235921245855
  0
VERTEX
  5
139
  8
SignTorch_HUMMINGBIRD006-
 10
5.607456890146122
 20
7.731239228242691
 30
0.0
 42
0.0174566666663683
  0
VERTEX
  5
13A
  8
SignTorch_HUMMINGBIRD006-
 10
5.691634073250824
 20
7.473266214370727
 30
0.0
 42
0.0785995971815286
  0
VERTEX
  5
13B
  8
SignTorch_HUMMINGBIRD006-
 10
5.736886074309279
 20
7.391831272121279
 30
0.0
 42
0.1016711119284872
  0
VERTEX
  5
13C
  8
SignTorch_HUMMINGBIRD006-
 10
5.792009073250823
 20
7.345016214370727
 30
0.0
 42
-0.0209214330218094
  0
VERTEX
  5
13D
  8
SignTorch_HUMMINGBIRD006-
 10
5.903073292237011
 20
7.277946554627111
 30
0.0
 42
-0.0437872815330476
  0
VERTEX
  5
13E
  8
SignTorch_HUMMINGBIRD006-
 10
5.951634073250823
 20
7.239266214370726
 30
0.0
 42
-0.0427846658781541
  0
VERTEX
  5
13F
  8
SignTorch_HUMMINGBIRD006-
 10
6.056994881109203
 20
7.120375166925942
 30
0.0
 42
0.0579899582192845
  0
VERTEX
  5
140
  8
SignTorch_HUMMINGBIRD006-
 10
6.115645792000824
 20
7.058104104995727
 30
0.0
 42
0.1662706888893459
  0
VERTEX
  5
141
  8
SignTorch_HUMMINGBIRD006-
 10
6.134024023426653
 20
7.050976918779831
 30
0.0
 42
0.2615143902155533
  0
VERTEX
  5
142
  8
SignTorch_HUMMINGBIRD006-
 10
6.145634073250823
 20
7.056891214370728
 30
0.0
 42
0.1541416865209015
  0
VERTEX
  5
143
  8
SignTorch_HUMMINGBIRD006-
 10
6.153485806143664
 20
7.083972007550535
 30
0.0
 42
-0.5960319292773459
  0
VERTEX
  5
144
  8
SignTorch_HUMMINGBIRD006-
 10
6.177962198250824
 20
7.097969339370726
 30
0.0
 42
-0.1418510467746535
  0
VERTEX
  5
145
  8
SignTorch_HUMMINGBIRD006-
 10
6.221556823331521
 20
7.049593685348181
 30
0.0
 42
0.1060418977540579
  0
VERTEX
  5
146
  8
SignTorch_HUMMINGBIRD006-
 10
6.261634073250824
 20
6.998266214370727
 30
0.0
 42
0.679669465698787
  0
VERTEX
  5
147
  8
SignTorch_HUMMINGBIRD006-
 10
6.330171776657889
 20
7.035471421828182
 30
0.0
 42
0.0224461807293539
  0
VERTEX
  5
148
  8
SignTorch_HUMMINGBIRD006-
 10
6.301759073250823
 20
7.205766214370727
 30
0.0
 42
0.0232252829214058
  0
VERTEX
  5
149
  8
SignTorch_HUMMINGBIRD006-
 10
6.256428989712586
 20
7.378494344400306
 30
0.0
 42
0.0770509283890227
  0
VERTEX
  5
14A
  8
SignTorch_HUMMINGBIRD006-
 10
6.196384073250823
 20
7.500641214370727
 30
0.0
 42
0.0106914119977873
  0
VERTEX
  5
14B
  8
SignTorch_HUMMINGBIRD006-
 10
6.05862358054619
 20
7.688764619401876
 30
0.0
 42
-0.0057454207296134
  0
SEQEND
  5
14C
  8
SignTorch_HUMMINGBIRD006-
  0
POLYLINE
  5
46
  8
SignTorch_HUMMINGBIRD006-
 66
     1
 10
0.0
 20
0.0
 30
0.0
 70
     1
  0
VERTEX
  5
14D
  8
SignTorch_HUMMINGBIRD006-
 10
5.572634073250824
 20
6.920266214370727
 30
0.0
 42
-0.006729752039566
  0
VERTEX
  5
14E
  8
SignTorch_HUMMINGBIRD006-
 10
5.691356416245275
 20
6.830801310563036
 30
0.0
 42
0.1163254859269088
  0
VERTEX
  5
14F
  8
SignTorch_HUMMINGBIRD006-
 10
5.792819620125824
 20
6.784559183120727
 30
0.0
 42
-0.0048439729190924
  0
VERTEX
  5
150
  8
SignTorch_HUMMINGBIRD006-
 10
5.907859180901673
 20
6.760555395249737
 30
0.0
 42
-0.0310749799681682
  0
VERTEX
  5
151
  8
SignTorch_HUMMINGBIRD006-
 10
5.925493448250823
 20
6.755531839370727
 30
0.0
 42
0.0275384618924226
  0
VERTEX
  5
152
  8
SignTorch_HUMMINGBIRD006-
 10
6.035200956111558
 20
6.723439028973472
 30
0.0
 42
0.2610348520047068
  0
VERTEX
  5
153
  8
SignTorch_HUMMINGBIRD006-
 10
6.090971963875824
 20
6.739545511245728
 30
0.0
 42
0.2402329593372754
  0
VERTEX
  5
154
  8
SignTorch_HUMMINGBIRD006-
 10
6.132205624791181
 20
6.869410381873114
 30
0.0
 42
0.1438454842544938
  0
VERTEX
  5
155
  8
SignTorch_HUMMINGBIRD006-
 10
6.036727823250823
 20
7.067156839370727
 30
0.0
 42
0.0693413631355434
  0
VERTEX
  5
156
  8
SignTorch_HUMMINGBIRD006-
 10
5.808729039677366
 20
7.257948759112403
 30
0.0
 42
0.0970112322938662
  0
VERTEX
  5
157
  8
SignTorch_HUMMINGBIRD006-
 10
5.205606729500824
 20
7.488352151870727
 30
0.0
 42
0.0697838203159416
  0
VERTEX
  5
158
  8
SignTorch_HUMMINGBIRD006-
 10
4.860233967340213
 20
7.499459700851332
 30
0.0
 42
0.1650646939349494
  0
VERTEX
  5
159
  8
SignTorch_HUMMINGBIRD006-
 10
4.798653604500823
 20
7.470891214370727
 30
0.0
 42
0.467417125889585
  0
VERTEX
  5
15A
  8
SignTorch_HUMMINGBIRD006-
 10
4.802167802163994
 20
7.417102229025771
 30
0.0
 42
0.0332344367798847
  0
VERTEX
  5
15B
  8
SignTorch_HUMMINGBIRD006-
 10
4.896634073250824
 20
7.357266214370727
 30
0.0
 42
-0.018925922160266
  0
VERTEX
  5
15C
  8
SignTorch_HUMMINGBIRD006-
 10
5.198341836751222
 20
7.178038751701011
 30
0.0
 42
-0.0146119449679356
  0
SEQEND
  5
15D
  8
SignTorch_HUMMINGBIRD006-
  0
POLYLINE
  5
47
  8
SignTorch_HUMMINGBIRD006-
 66
     1
 10
0.0
 20
0.0
 30
0.0
 70
     1
  0
VERTEX
  5
15E
  8
SignTorch_HUMMINGBIRD006-
 10
6.032634073250824
 20
6.472266214370727
 30
0.0
 42
0.0680728294275794
  0
VERTEX
  5
15F
  8
SignTorch_HUMMINGBIRD006-
 10
6.082861966643969
 20
6.49918744858768
 30
0.0
 42
0.360764603462859
  0
VERTEX
  5
160
  8
SignTorch_HUMMINGBIRD006-
 10
6.091837198250824
 20
6.534281839370728
 30
0.0
 42
0.1024811432625789
  0
VERTEX
  5
161
  8
SignTorch_HUMMINGBIRD006-
 10
6.050279123255151
 20
6.589366692596587
 30
0.0
 42
0.0731222587973905
  0
VERTEX
  5
162
  8
SignTorch_HUMMINGBIRD006-
 10
5.921182901375824
 20
6.672885354995728
 30
0.0
 42
0.1316244882804451
  0
VERTEX
  5
163
  8
SignTorch_HUMMINGBIRD006-
 10
5.692307898821933
 20
6.711348744954559
 30
0.0
 42
0.1440596503792612
  0
VERTEX
  5
164
  8
SignTorch_HUMMINGBIRD006-
 10
5.153741495125823
 20
6.495365823745727
 30
0.0
 42
0.0587965350094903
  0
VERTEX
  5
165
  8
SignTorch_HUMMINGBIRD006-
 10
5.010094335918907
 20
6.351831551119449
 30
0.0
 42
0.0363832842880524
  0
VERTEX
  5
166
  8
SignTorch_HUMMINGBIRD006-
 10
4.826384073250823
 20
6.080750589370727
 30
0.0
 42
0.0586332249689145
  0
VERTEX
  5
167
  8
SignTorch_HUMMINGBIRD006-
 10
4.779258002419855
 20
5.971044459013368
 30
0.0
 42
0.3040816445564611
  0
VERTEX
  5
168
  8
SignTorch_HUMMINGBIRD006-
 10
4.786708292000823
 20
5.947111917495728
 30
0.0
 42
0.2868419745248753
  0
VERTEX
  5
169
  8
SignTorch_HUMMINGBIRD006-
 10
4.81806340854918
 20
5.943333574982229
 30
0.0
 42
0.0755820186993537
  0
VERTEX
  5
16A
  8
SignTorch_HUMMINGBIRD006-
 10
4.910634073250824
 20
6.005266214370728
 30
0.0
 42
-0.0048381494382341
  0
VERTEX
  5
16B
  8
SignTorch_HUMMINGBIRD006-
 10
5.172255044477232
 20
6.239790796589753
 30
0.0
 42
-0.110513211138308
  0
VERTEX
  5
16C
  8
SignTorch_HUMMINGBIRD006-
 10
5.461634073250823
 20
6.398266214370728
 30
0.0
 42
-0.0856149801042469
  0
VERTEX
  5
16D
  8
SignTorch_HUMMINGBIRD006-
 10
5.747829616166073
 20
6.429899254849008
 30
0.0
 42
0.1045817542373925
  0
SEQEND
  5
16E
  8
SignTorch_HUMMINGBIRD006-
  0
POLYLINE
  5
48
  8
SignTorch_HUMMINGBIRD006-
 66
     1
 10
0.0
 20
0.0
 30
0.0
 70
     1
  0
VERTEX
  5
16F
  8
SignTorch_HUMMINGBIRD006-
 10
6.371634073250823
 20
6.826266214370727
 30
0.0
 42
0.0932701364633942
  0
VERTEX
  5
170
  8
SignTorch_HUMMINGBIRD006-
 10
6.361094488103636
 20
6.857696534172916
 30
0.0
 42
0.3314719403878899
  0
VERTEX
  5
171
  8
SignTorch_HUMMINGBIRD006-
 10
6.319634073250824
 20
6.876266214370728
 30
0.0
 42
0.2570208604573797
  0
VERTEX
  5
172
  8
SignTorch_HUMMINGBIRD006-
 10
6.286213813086795
 20
6.846823896777146
 30
0.0
 42
0.235320538766231
  0
VERTEX
  5
173
  8
SignTorch_HUMMINGBIRD006-
 10
6.291825479500824
 20
6.798992776870727
 30
0.0
 42
-0.0166517968821
  0
VERTEX
  5
174
  8
SignTorch_HUMMINGBIRD006-
 10
6.327199441138649
 20
6.740738243012272
 30
0.0
 42
-0.7121885007494921
  0
VERTEX
  5
175
  8
SignTorch_HUMMINGBIRD006-
 10
6.307305948250823
 20
6.718297464370727
 30
0.0
 42
-0.161576768742056
  0
VERTEX
  5
176
  8
SignTorch_HUMMINGBIRD006-
 10
6.26410107547258
 20
6.755629575336501
 30
0.0
 42
0.2106339929719845
  0
VERTEX
  5
177
  8
SignTorch_HUMMINGBIRD006-
 10
6.217555948250824
 20
6.788703714370728
 30
0.0
 42
0.2612069102930787
  0
VERTEX
  5
178
  8
SignTorch_HUMMINGBIRD006-
 10
6.183748255699027
 20
6.777933709699154
 30
0.0
 42
0.1976600860775213
  0
VERTEX
  5
179
  8
SignTorch_HUMMINGBIRD006-
 10
6.167634073250824
 20
6.735266214370728
 30
0.0
 42
0.3721944301919898
  0
VERTEX
  5
17A
  8
SignTorch_HUMMINGBIRD006-
 10
6.19289713270516
 20
6.707698270881079
 30
0.0
 42
-0.1558062166012698
  0
VERTEX
  5
17B
  8
SignTorch_HUMMINGBIRD006-
 10
6.255634073250824
 20
6.679266214370728
 30
0.0
 42
-0.0501115399553137
  0
VERTEX
  5
17C
  8
SignTorch_HUMMINGBIRD006-
 10
6.328102628622094
 20
6.599263137790195
 30
0.0
 42
0.3392580879098753
  0
VERTEX
  5
17D
  8
SignTorch_HUMMINGBIRD006-
 10
6.384819620125823
 20
6.582906839370727
 30
0.0
 42
0.1174982634915456
  0
VERTEX
  5
17E
  8
SignTorch_HUMMINGBIRD006-
 10
6.435739572223493
 20
6.618291801634792
 30
0.0
 42
0.1385864771602848
  0
VERTEX
  5
17F
  8
SignTorch_HUMMINGBIRD006-
 10
6.500772745125824
 20
6.751506448745728
 30
0.0
 42
0.1844326101651139
  0
VERTEX
  5
180
  8
SignTorch_HUMMINGBIRD006-
 10
6.490131204182158
 20
6.808046793982536
 30
0.0
 42
0.5994773498321084
  0
VERTEX
  5
181
  8
SignTorch_HUMMINGBIRD006-
 10
6.410682901375823
 20
6.803268167495727
 30
0.0
 42
0.2513526947804083
  0
VERTEX
  5
182
  8
SignTorch_HUMMINGBIRD006-
 10
6.413848313030612
 20
6.752156174818901
 30
0.0
 42
-0.3323001258735758
  0
VERTEX
  5
183
  8
SignTorch_HUMMINGBIRD006-
 10
6.409384073250824
 20
6.701141214370727
 30
0.0
 42
-0.6263768522014728
  0
VERTEX
  5
184
  8
SignTorch_HUMMINGBIRD006-
 10
6.388666230208754
 20
6.707038384936132
 30
0.0
 42
-0.0093922785036987
  0
VERTEX
  5
185
  8
SignTorch_HUMMINGBIRD006-
 10
6.380634073250824
 20
6.758266214370727
 30
0.0
 42
-0.0026776504392237
  0
VERTEX
  5
186
  8
SignTorch_HUMMINGBIRD006-
 10
6.37614090152214
 20
6.792267118112519
 30
0.0
 42
0.0028784834964655
  0
SEQEND
  5
187
  8
SignTorch_HUMMINGBIRD006-
  0
POLYLINE
  5
49
  8
SignTorch_HUMMINGBIRD006-
 66
     1
 10
0.0
 20
0.0
 30
0.0
 70
     1
  0
VERTEX
  5
188
  8
SignTorch_HUMMINGBIRD006-
 10
6.825884073250824
 20
6.446766214370728
 30
0.0
 42
0.1441177298053294
  0
VERTEX
  5
189
  8
SignTorch_HUMMINGBIRD006-
 10
6.864331563016269
 20
6.440175543245997
 30
0.0
 42
0.275344567626083
  0
VERTEX
  5
18A
  8
SignTorch_HUMMINGBIRD006-
 10
6.881411417000824
 20
6.453264261245727
 30
0.0
 42
0.1663855153483834
  0
VERTEX
  5
18B
  8
SignTorch_HUMMINGBIRD006-
 10
6.884132195909577
 20
6.507847065874407
 30
0.0
 42
0.0914301727428795
  0
VERTEX
  5
18C
  8
SignTorch_HUMMINGBIRD006-
 10
6.817302042000824
 20
6.641959573745728
 30
0.0
 42
0.0962838688319566
  0
VERTEX
  5
18D
  8
SignTorch_HUMMINGBIRD006-
 10
6.74048336205276
 20
6.711284870121721
 30
0.0
 42
0.2042977062394915
  0
VERTEX
  5
18E
  8
SignTorch_HUMMINGBIRD006-
 10
6.690634073250823
 20
6.718266214370727
 30
0.0
 42
0.0959398704493453
  0
VERTEX
  5
18F
  8
SignTorch_HUMMINGBIRD006-
 10
6.640814883861403
 20
6.69388052900538
 30
0.0
 42
0.0325721983362295
  0
VERTEX
  5
190
  8
SignTorch_HUMMINGBIRD006-
 10
6.518087198250824
 20
6.588047464370728
 30
0.0
 42
0.0837474740820515
  0
VERTEX
  5
191
  8
SignTorch_HUMMINGBIRD006-
 10
6.486296790500081
 20
6.544166022661304
 30
0.0
 42
0.4104531277439954
  0
VERTEX
  5
192
  8
SignTorch_HUMMINGBIRD006-
 10
6.490321573250823
 20
6.531984964370727
 30
0.0
 42
0.2259451940704849
  0
VERTEX
  5
193
  8
SignTorch_HUMMINGBIRD006-
 10
6.521579833327882
 20
6.531100802174909
 30
0.0
 42
-0.1204925186788731
  0
VERTEX
  5
194
  8
SignTorch_HUMMINGBIRD006-
 10
6.578634073250823
 20
6.541266214370728
 30
0.0
 42
-0.0869174422581415
  0
VERTEX
  5
195
  8
SignTorch_HUMMINGBIRD006-
 10
6.668417501151393
 20
6.51958880373774
 30
0.0
 42
-0.0114325399286558
  0
SEQEND
  5
196
  8
SignTorch_HUMMINGBIRD006-
  0
POLYLINE
  5
4A
  8
SignTorch_HUMMINGBIRD006-
 66
     1
 10
0.0
 20
0.0
 30
0.0
 70
     1
  0
VERTEX
  5
197
  8
SignTorch_HUMMINGBIRD006-
 10
6.817009073250824
 20
6.112516214370728
 30
0.0
 42
-0.0306172485319991
  0
VERTEX
  5
198
  8
SignTorch_HUMMINGBIRD006-
 10
6.732286566309939
 20
6.370042983517295
 30
0.0
 42
0.2990369478786246
  0
VERTEX
  5
199
  8
SignTorch_HUMMINGBIRD006-
 10
6.597774698250823
 20
6.491156839370728
 30
0.0
 42
0.1008442559698342
  0
VERTEX
  5
19A
  8
SignTorch_HUMMINGBIRD006-
 10
6.487848119048177
 20
6.485752728519881
 30
0.0
 42
0.1908986630408714
  0
VERTEX
  5
19B
  8
SignTorch_HUMMINGBIRD006-
 10
6.439555948250824
 20
6.450734964370727
 30
0.0
 42
0.0905490260861636
  0
VERTEX
  5
19C
  8
SignTorch_HUMMINGBIRD006-
 10
6.419400574624984
 20
6.401073464776679
 30
0.0
 42
0.0440866468061436
  0
VERTEX
  5
19D
  8
SignTorch_HUMMINGBIRD006-
 10
6.406649698250823
 20
6.292422464370727
 30
0.0
 42
0.0823677979163481
  0
VERTEX
  5
19E
  8
SignTorch_HUMMINGBIRD006-
 10
6.411582410941534
 20
6.256284643924398
 30
0.0
 42
0.1109539378284621
  0
VERTEX
  5
19F
  8
SignTorch_HUMMINGBIRD006-
 10
6.425134073250824
 20
6.232672464370728
 30
0.0
 42
0.0325358134384412
  0
VERTEX
  5
1A0
  8
SignTorch_HUMMINGBIRD006-
 10
6.507742793973812
 20
6.153570472084678
 30
0.0
 42
-0.0436642410537621
  0
VERTEX
  5
1A1
  8
SignTorch_HUMMINGBIRD006-
 10
6.657852823250823
 20
6.003297464370728
 30
0.0
 42
-0.0121266743133597
  0
VERTEX
  5
1A2
  8
SignTorch_HUMMINGBIRD006-
 10
6.739532596402039
 20
5.900901991140477
 30
0.0
 42
-0.0087931362566352
  0
VERTEX
  5
1A3
  8
SignTorch_HUMMINGBIRD006-
 10
6.846165323250823
 20
5.755109964370727
 30
0.0
 42
0.0201616216064911
  0
VERTEX
  5
1A4
  8
SignTorch_HUMMINGBIRD006-
 10
6.878143575000254
 20
5.713411434898598
 30
0.0
 42
0.1914791320542096
  0
VERTEX
  5
1A5
  8
SignTorch_HUMMINGBIRD006-
 10
6.901321573250823
 20
5.700813089370727
 30
0.0
 42
0.2097937658667016
  0
VERTEX
  5
1A6
  8
SignTorch_HUMMINGBIRD006-
 10
6.95091724471456
 20
5.715834348578538
 30
0.0
 42
0.2874238602050418
  0
VERTEX
  5
1A7
  8
SignTorch_HUMMINGBIRD006-
 10
6.962634073250824
 20
5.753266214370727
 30
0.0
 42
0.0444566610281599
  0
VERTEX
  5
1A8
  8
SignTorch_HUMMINGBIRD006-
 10
6.916691058421006
 20
5.881005139304109
 30
0.0
 42
-0.0137670740776156
  0
SEQEND
  5
1A9
  8
SignTorch_HUMMINGBIRD006-
  0
POLYLINE
  5
4B
  8
SignTorch_HUMMINGBIRD006-
 66
     1
 10
0.0
 20
0.0
 30
0.0
 70
     1
  0
VERTEX
  5
1AA
  8
SignTorch_HUMMINGBIRD006-
 10
6.196634073250824
 20
5.559266214370727
 30
0.0
 42
0.0167212676220103
  0
VERTEX
  5
1AB
  8
SignTorch_HUMMINGBIRD006-
 10
6.284114550819536
 20
5.389312969771659
 30
0.0
 42
0.086127874185546
  0
VERTEX
  5
1AC
  8
SignTorch_HUMMINGBIRD006-
 10
6.307634073250824
 20
5.360266214370728
 30
0.0
 42
0.6808815357095944
  0
VERTEX
  5
1AD
  8
SignTorch_HUMMINGBIRD006-
 10
6.34990801536773
 20
5.382125812487286
 30
0.0
 42
0.007333153931399
  0
VERTEX
  5
1AE
  8
SignTorch_HUMMINGBIRD006-
 10
6.330868448250824
 20
5.544594339370727
 30
0.0
 42
-0.0250876176481161
  0
VERTEX
  5
1AF
  8
SignTorch_HUMMINGBIRD006-
 10
6.300566291738201
 20
5.917144273901568
 30
0.0
 42
-0.0886410117131705
  0
VERTEX
  5
1B0
  8
SignTorch_HUMMINGBIRD006-
 10
6.375634073250823
 20
6.428266214370727
 30
0.0
 42
0.0447876734290261
  0
VERTEX
  5
1B1
  8
SignTorch_HUMMINGBIRD006-
 10
6.387038995931651
 20
6.476297484811981
 30
0.0
 42
0.4876322209680623
  0
VERTEX
  5
1B2
  8
SignTorch_HUMMINGBIRD006-
 10
6.351634073250824
 20
6.513266214370727
 30
0.0
 42
0.0590871035099728
  0
VERTEX
  5
1B3
  8
SignTorch_HUMMINGBIRD006-
 10
6.28562490899221
 20
6.498613105691787
 30
0.0
 42
0.0217238899920252
  0
VERTEX
  5
1B4
  8
SignTorch_HUMMINGBIRD006-
 10
6.115343057625823
 20
6.430615823745729
 30
0.0
 42
0.2588565377799404
  0
VERTEX
  5
1B5
  8
SignTorch_HUMMINGBIRD006-
 10
6.022280673408126
 20
6.305842346035057
 30
0.0
 42
0.1028612506574697
  0
VERTEX
  5
1B6
  8
SignTorch_HUMMINGBIRD006-
 10
6.048509073250823
 20
5.935766214370727
 30
0.0
 42
0.0247726586027388
  0
VERTEX
  5
1B7
  8
SignTorch_HUMMINGBIRD006-
 10
6.100770545075028
 20
5.780812849016715
 30
0.0
 42
0.0167761032599902
  0
SEQEND
  5
1B8
  8
SignTorch_HUMMINGBIRD006-
  0
POLYLINE
  5
4C
  8
SignTorch_HUMMINGBIRD006-
 66
     1
 10
0.0
 20
0.0
 30
0.0
 70
     1
  0
VERTEX
  5
1B9
  8
SignTorch_HUMMINGBIRD006-
 10
5.668899698250824
 20
2.661875589370727
 30
0.0
 42
-0.099692036033115
  0
VERTEX
  5
1BA
  8
SignTorch_HUMMINGBIRD006-
 10
5.773788661760558
 20
3.009149728283982
 30
0.0
 42
-0.1211440926908517
  0
VERTEX
  5
1BB
  8
SignTorch_HUMMINGBIRD006-
 10
5.974509073250823
 20
3.232016214370727
 30
0.0
 42
-0.0273615298120139
  0
VERTEX
  5
1BC
  8
SignTorch_HUMMINGBIRD006-
 10
6.101601940215862
 20
3.308512511461628
 30
0.0
 42
0.3623427007939363
  0
VERTEX
  5
1BD
  8
SignTorch_HUMMINGBIRD006-
 10
6.116241495125823
 20
3.344285745620727
 30
0.0
 42
0.3380319566816737
  0
VERTEX
  5
1BE
  8
SignTorch_HUMMINGBIRD006-
 10
6.093462777316422
 20
3.360275263187703
 30
0.0
 42
-0.0570045725546138
  0
VERTEX
  5
1BF
  8
SignTorch_HUMMINGBIRD006-
 10
5.985634073250823
 20
3.368266214370728
 30
0.0
 42
-0.031005376160914
  0
VERTEX
  5
1C0
  8
SignTorch_HUMMINGBIRD006-
 10
5.865554568360925
 20
3.398908282894341
 30
0.0
 42
0.1374360480805629
  0
VERTEX
  5
1C1
  8
SignTorch_HUMMINGBIRD006-
 10
5.741719766610199
 20
3.403700540542603
 30
0.0
 42
0.1653127089347061
  0
VERTEX
  5
1C2
  8
SignTorch_HUMMINGBIRD006-
 10
5.588199485320333
 20
3.306992069374243
 30
0.0
 42
0.1899693724668493
  0
VERTEX
  5
1C3
  8
SignTorch_HUMMINGBIRD006-
 10
5.457665323250823
 20
2.893125589370728
 30
0.0
 42
0.070063680293738
  0
VERTEX
  5
1C4
  8
SignTorch_HUMMINGBIRD006-
 10
5.496128785117893
 20
2.712522569507314
 30
0.0
 42
0.0672342858415892
  0
VERTEX
  5
1C5
  8
SignTorch_HUMMINGBIRD006-
 10
5.585634073250824
 20
2.542266214370728
 30
0.0
 42
0.1328423897314574
  0
VERTEX
  5
1C6
  8
SignTorch_HUMMINGBIRD006-
 10
5.630431632453172
 20
2.505414342059595
 30
0.0
 42
0.3733761817714419
  0
VERTEX
  5
1C7
  8
SignTorch_HUMMINGBIRD006-
 10
5.652571573250824
 20
2.512031839370727
 30
0.0
 42
0.1531947289047666
  0
VERTEX
  5
1C8
  8
SignTorch_HUMMINGBIRD006-
 10
5.666328842257577
 20
2.563408229907638
 30
0.0
 42
-0.0342596595482476
  0
SEQEND
  5
1C9
  8
SignTorch_HUMMINGBIRD006-
  0
POLYLINE
  5
4D
  8
SignTorch_HUMMINGBIRD006-
 66
     1
 10
0.0
 20
0.0
 30
0.0
 70
     1
  0
VERTEX
  5
1CA
  8
SignTorch_HUMMINGBIRD006-
 10
5.285134073250823
 20
3.522891214370727
 30
0.0
 42
-0.0911543627044645
  0
VERTEX
  5
1CB
  8
SignTorch_HUMMINGBIRD006-
 10
5.511820025345355
 20
3.446815401550632
 30
0.0
 42
0.1678420850134923
  0
VERTEX
  5
1CC
  8
SignTorch_HUMMINGBIRD006-
 10
5.638794229500824
 20
3.424625589370727
 30
0.0
 42
0.0317017993464355
  0
VERTEX
  5
1CD
  8
SignTorch_HUMMINGBIRD006-
 10
5.710322683422723
 20
3.440842848996929
 30
0.0
 42
-0.0763187349019773
  0
VERTEX
  5
1CE
  8
SignTorch_HUMMINGBIRD006-
 10
5.783009073250824
 20
3.450641214370727
 30
0.0
 42
-0.0762398733335101
  0
VERTEX
  5
1CF
  8
SignTorch_HUMMINGBIRD006-
 10
5.875273118145934
 20
3.434752931000056
 30
0.0
 42
0.2998315392493465
  0
VERTEX
  5
1D0
  8
SignTorch_HUMMINGBIRD006-
 10
5.965751260750824
 20
3.458811136245727
 30
0.0
 42
0.2958130943225116
  0
VERTEX
  5
1D1
  8
SignTorch_HUMMINGBIRD006-
 10
5.973182905271761
 20
3.506978049150258
 30
0.0
 42
0.1290535945124117
  0
VERTEX
  5
1D2
  8
SignTorch_HUMMINGBIRD006-
 10
5.831173135750824
 20
3.683010354995727
 30
0.0
 42
0.1055065820391099
  0
VERTEX
  5
1D3
  8
SignTorch_HUMMINGBIRD006-
 10
5.611362579046982
 20
3.782504570014201
 30
0.0
 42
0.0928468444430698
  0
VERTEX
  5
1D4
  8
SignTorch_HUMMINGBIRD006-
 10
5.159415323250824
 20
3.795906839370727
 30
0.0
 42
0.0452112697006646
  0
VERTEX
  5
1D5
  8
SignTorch_HUMMINGBIRD006-
 10
4.910606232640931
 20
3.733466756002985
 30
0.0
 42
0.0818403757753553
  0
VERTEX
  5
1D6
  8
SignTorch_HUMMINGBIRD006-
 10
4.785634073250824
 20
3.665266214370728
 30
0.0
 42
0.1430446218584891
  0
VERTEX
  5
1D7
  8
SignTorch_HUMMINGBIRD006-
 10
4.766892743459027
 20
3.639222264001327
 30
0.0
 42
0.2472058382310242
  0
VERTEX
  5
1D8
  8
SignTorch_HUMMINGBIRD006-
 10
4.769684122078949
 20
3.620118997573853
 30
0.0
 42
0.1757542403143391
  0
VERTEX
  5
1D9
  8
SignTorch_HUMMINGBIRD006-
 10
4.810964024269659
 20
3.592296870219916
 30
0.0
 42
0.0373280280286851
  0
VERTEX
  5
1DA
  8
SignTorch_HUMMINGBIRD006-
 10
5.130634073250824
 20
3.537266214370728
 30
0.0
 42
0.0073064922349227
  0
VERTEX
  5
1DB
  8
SignTorch_HUMMINGBIRD006-
 10
5.207966961280674
 20
3.530969580500254
 30
0.0
 42
-0.0188403273575621
  0
SEQEND
  5
1DC
  8
SignTorch_HUMMINGBIRD006-
  0
POLYLINE
  5
4E
  8
SignTorch_HUMMINGBIRD006-
 66
     1
 10
0.0
 20
0.0
 30
0.0
 70
     1
  0
VERTEX
  5
1DD
  8
SignTorch_HUMMINGBIRD006-
 10
5.525259073250824
 20
4.396891214370727
 30
0.0
 42
-0.0211848867476302
  0
VERTEX
  5
1DE
  8
SignTorch_HUMMINGBIRD006-
 10
5.657359330267007
 20
4.039049016015955
 30
0.0
 42
0.0778248346939524
  0
VERTEX
  5
1DF
  8
SignTorch_HUMMINGBIRD006-
 10
5.749817667000824
 20
3.855494729995728
 30
0.0
 42
0.0901842155967641
  0
VERTEX
  5
1E0
  8
SignTorch_HUMMINGBIRD006-
 10
5.857846384984881
 20
3.750959248979115
 30
0.0
 42
-0.1149023968222786
  0
VERTEX
  5
1E1
  8
SignTorch_HUMMINGBIRD006-
 10
5.960634073250824
 20
3.641266214370727
 30
0.0
 42
0.0888196498454097
  0
VERTEX
  5
1E2
  8
SignTorch_HUMMINGBIRD006-
 10
5.990401140498108
 20
3.60601745309774
 30
0.0
 42
0.3630284933855477
  0
VERTEX
  5
1E3
  8
SignTorch_HUMMINGBIRD006-
 10
6.050634073250824
 20
3.606266214370727
 30
0.0
 42
0.2027900322361849
  0
VERTEX
  5
1E4
  8
SignTorch_HUMMINGBIRD006-
 10
6.093442369572584
 20
3.69053085449619
 30
0.0
 42
0.1090855982636
  0
VERTEX
  5
1E5
  8
SignTorch_HUMMINGBIRD006-
 10
6.036384073250823
 20
4.074766214370728
 30
0.0
 42
0.059011284893823
  0
VERTEX
  5
1E6
  8
SignTorch_HUMMINGBIRD006-
 10
5.967923973000057
 20
4.205429241734312
 30
0.0
 42
0.024144672860878
  0
VERTEX
  5
1E7
  8
SignTorch_HUMMINGBIRD006-
 10
5.642884073250825
 20
4.634078714370728
 30
0.0
 42
0.0617169295528357
  0
VERTEX
  5
1E8
  8
SignTorch_HUMMINGBIRD006-
 10
5.482560599253722
 20
4.783571594049397
 30
0.0
 42
0.2437585616778223
  0
VERTEX
  5
1E9
  8
SignTorch_HUMMINGBIRD006-
 10
5.424634073250823
 20
4.792266214370728
 30
0.0
 42
0.3716963503657217
  0
VERTEX
  5
1EA
  8
SignTorch_HUMMINGBIRD006-
 10
5.397010239390265
 20
4.74510340887309
 30
0.0
 42
0.0390321612602605
  0
VERTEX
  5
1EB
  8
SignTorch_HUMMINGBIRD006-
 10
5.424071573250823
 20
4.643344339370728
 30
0.0
 42
0.018567456089967
  0
VERTEX
  5
1EC
  8
SignTorch_HUMMINGBIRD006-
 10
5.472876619755684
 20
4.519383379873674
 30
0.0
 42
-0.0040507967546187
  0
SEQEND
  5
1ED
  8
SignTorch_HUMMINGBIRD006-
  0
POLYLINE
  5
4F
  8
SignTorch_HUMMINGBIRD006-
 66
     1
 10
0.0
 20
0.0
 30
0.0
 70
     1
  0
VERTEX
  5
1EE
  8
SignTorch_HUMMINGBIRD006-
 10
6.335634073250823
 20
4.312266214370728
 30
0.0
 42
-0.0116655839681036
  0
VERTEX
  5
1EF
  8
SignTorch_HUMMINGBIRD006-
 10
6.369697223723259
 20
4.641844394358878
 30
0.0
 42
-0.0152620287779052
  0
VERTEX
  5
1F0
  8
SignTorch_HUMMINGBIRD006-
 10
6.409259073250824
 20
4.892016214370727
 30
0.0
 42
0.0302924187124128
  0
VERTEX
  5
1F1
  8
SignTorch_HUMMINGBIRD006-
 10
6.426769316995431
 20
5.029373892313106
 30
0.0
 42
0.1879943798919253
  0
VERTEX
  5
1F2
  8
SignTorch_HUMMINGBIRD006-
 10
6.419829385750824
 20
5.051385354995728
 30
0.0
 42
0.4593972255558817
  0
VERTEX
  5
1F3
  8
SignTorch_HUMMINGBIRD006-
 10
6.379422794075078
 20
5.052696647552384
 30
0.0
 42
0.0655558431786844
  0
VERTEX
  5
1F4
  8
SignTorch_HUMMINGBIRD006-
 10
6.244634073250823
 20
4.860266214370728
 30
0.0
 42
0.0470841897310042
  0
VERTEX
  5
1F5
  8
SignTorch_HUMMINGBIRD006-
 10
6.125537822033565
 20
4.567211171913096
 30
0.0
 42
0.0462022260969233
  0
VERTEX
  5
1F6
  8
SignTorch_HUMMINGBIRD006-
 10
6.061634073250824
 20
4.251266214370728
 30
0.0
 42
0.1150301674520643
  0
VERTEX
  5
1F7
  8
SignTorch_HUMMINGBIRD006-
 10
6.086725650049797
 20
4.046317805924888
 30
0.0
 42
-0.0345381386781696
  0
VERTEX
  5
1F8
  8
SignTorch_HUMMINGBIRD006-
 10
6.144149698250824
 20
3.847984964370727
 30
0.0
 42
0.1339232885707767
  0
VERTEX
  5
1F9
  8
SignTorch_HUMMINGBIRD006-
 10
6.162984973461904
 20
3.811720892168792
 30
0.0
 42
0.3976083546215688
  0
VERTEX
  5
1FA
  8
SignTorch_HUMMINGBIRD006-
 10
6.197343057625824
 20
3.809359964370727
 30
0.0
 42
0.1923785856019267
  0
VERTEX
  5
1FB
  8
SignTorch_HUMMINGBIRD006-
 10
6.220318182395105
 20
3.851176333693818
 30
0.0
 42
-0.0702979745718585
  0
VERTEX
  5
1FC
  8
SignTorch_HUMMINGBIRD006-
 10
6.269587198250824
 20
4.034422464370726
 30
0.0
 42
-0.0080937358441666
  0
VERTEX
  5
1FD
  8
SignTorch_HUMMINGBIRD006-
 10
6.306145013788675
 20
4.116459890618056
 30
0.0
 42
0.0676208377625537
  0
VERTEX
  5
1FE
  8
SignTorch_HUMMINGBIRD006-
 10
6.323014932625823
 20
4.170926370620728
 30
0.0
 42
0.0274373618716108
  0
VERTEX
  5
1FF
  8
SignTorch_HUMMINGBIRD006-
 10
6.330838227646103
 20
4.241461143733368
 30
0.0
 42
-0.0060141813688542
  0
SEQEND
  5
200
  8
SignTorch_HUMMINGBIRD006-
  0
POLYLINE
  5
50
  8
SignTorch_HUMMINGBIRD006-
 66
     1
 10
0.0
 20
0.0
 30
0.0
 70
     1
  0
VERTEX
  5
201
  8
SignTorch_HUMMINGBIRD006-
 10
7.058634073250824
 20
4.331266214370728
 30
0.0
 42
0.0219664737750636
  0
VERTEX
  5
202
  8
SignTorch_HUMMINGBIRD006-
 10
7.1410771196964
 20
4.387140502398831
 30
0.0
 42
0.5495762876432142
  0
VERTEX
  5
203
  8
SignTorch_HUMMINGBIRD006-
 10
7.137805948250824
 20
4.431391214370727
 30
0.0
 42
0.1197091661729264
  0
VERTEX
  5
204
  8
SignTorch_HUMMINGBIRD006-
 10
7.069835808067707
 20
4.44901402709519
 30
0.0
 42
0.0791070006668221
  0
VERTEX
  5
205
  8
SignTorch_HUMMINGBIRD006-
 10
6.819227823250824
 20
4.413063089370727
 30
0.0
 42
0.1071303670436377
  0
VERTEX
  5
206
  8
SignTorch_HUMMINGBIRD006-
 10
6.47724689654215
 20
4.220056707727574
 30
0.0
 42
0.1723228260084934
  0
VERTEX
  5
207
  8
SignTorch_HUMMINGBIRD006-
 10
6.251634073250823
 20
3.809266214370727
 30
0.0
 42
0.1106063884384904
  0
VERTEX
  5
208
  8
SignTorch_HUMMINGBIRD006-
 10
6.254627763800372
 20
3.758900911533224
 30
0.0
 42
0.210531076767122
  0
VERTEX
  5
209
  8
SignTorch_HUMMINGBIRD006-
 10
6.272134073250824
 20
3.737891214370728
 30
0.0
 42
0.112126108399757
  0
VERTEX
  5
20A
  8
SignTorch_HUMMINGBIRD006-
 10
6.322789811205396
 20
3.725613670969542
 30
0.0
 42
0.1400647323099236
  0
VERTEX
  5
20B
  8
SignTorch_HUMMINGBIRD006-
 10
6.438915323250824
 20
3.756984964370727
 30
0.0
 42
0.1241343261945004
  0
VERTEX
  5
20C
  8
SignTorch_HUMMINGBIRD006-
 10
6.512305938813584
 20
3.830932124226789
 30
0.0
 42
-0.0882314632403311
  0
VERTEX
  5
20D
  8
SignTorch_HUMMINGBIRD006-
 10
6.784009073250823
 20
4.146641214370728
 30
0.0
 42
-0.0230759270799506
  0
VERTEX
  5
20E
  8
SignTorch_HUMMINGBIRD006-
 10
6.86469109073016
 20
4.206464898042467
 30
0.0
 42
-0.010045517482844
  0
SEQEND
  5
20F
  8
SignTorch_HUMMINGBIRD006-
  0
POLYLINE
  5
51
  8
SignTorch_HUMMINGBIRD006-
 66
     1
 10
0.0
 20
0.0
 30
0.0
 70
     1
  0
VERTEX
  5
210
  8
SignTorch_HUMMINGBIRD006-
 10
7.015634073250824
 20
3.858266214370727
 30
0.0
 42
0.0396248286394136
  0
VERTEX
  5
211
  8
SignTorch_HUMMINGBIRD006-
 10
7.249526350952482
 20
3.660238612389216
 30
0.0
 42
0.1590457384997767
  0
VERTEX
  5
212
  8
SignTorch_HUMMINGBIRD006-
 10
7.634649698250824
 20
3.537766214370728
 30
0.0
 42
0.1137836685634964
  0
VERTEX
  5
213
  8
SignTorch_HUMMINGBIRD006-
 10
7.673717238743787
 20
3.547084682845798
 30
0.0
 42
0.2409509263447272
  0
VERTEX
  5
214
  8
SignTorch_HUMMINGBIRD006-
 10
7.685503213875824
 20
3.563008401870728
 30
0.0
 42
0.1664875125260313
  0
VERTEX
  5
215
  8
SignTorch_HUMMINGBIRD006-
 10
7.678649660365541
 20
3.603998461695366
 30
0.0
 42
0.0579322290581299
  0
VERTEX
  5
216
  8
SignTorch_HUMMINGBIRD006-
 10
7.535384073250823
 20
3.808391214370727
 30
0.0
 42
0.0711483919643363
  0
VERTEX
  5
217
  8
SignTorch_HUMMINGBIRD006-
 10
7.363816904273666
 20
3.953385455195375
 30
0.0
 42
0.0776288989742032
  0
VERTEX
  5
218
  8
SignTorch_HUMMINGBIRD006-
 10
7.174384073250823
 20
4.034516214370727
 30
0.0
 42
0.0139303966778923
  0
VERTEX
  5
219
  8
SignTorch_HUMMINGBIRD006-
 10
7.088758072429205
 20
4.053829493286776
 30
0.0
 42
0.0063543233120961
  0
VERTEX
  5
21A
  8
SignTorch_HUMMINGBIRD006-
 10
6.899509073250823
 20
4.088516214370728
 30
0.0
 42
0.1643130989209496
  0
VERTEX
  5
21B
  8
SignTorch_HUMMINGBIRD006-
 10
6.864208531539015
 20
4.082922609820469
 30
0.0
 42
0.2841448883722977
  0
VERTEX
  5
21C
  8
SignTorch_HUMMINGBIRD006-
 10
6.853134073250823
 20
4.064203714370727
 30
0.0
 42
0.1635814809201208
  0
VERTEX
  5
21D
  8
SignTorch_HUMMINGBIRD006-
 10
6.867374310953656
 20
4.024422589030811
 30
0.0
 42
0.0302572295901732
  0
SEQEND
  5
21E
  8
SignTorch_HUMMINGBIRD006-
  0
POLYLINE
  5
52
  8
SignTorch_HUMMINGBIRD006-
 66
     1
 10
0.0
 20
0.0
 30
0.0
 70
     1
  0
VERTEX
  5
21F
  8
SignTorch_HUMMINGBIRD006-
 10
10.02588407325082
 20
2.684891214370727
 30
0.0
 42
0.0318350754253276
  0
VERTEX
  5
220
  8
SignTorch_HUMMINGBIRD006-
 10
10.14515629271679
 20
2.648656867329861
 30
0.0
 42
0.5205551407661727
  0
VERTEX
  5
221
  8
SignTorch_HUMMINGBIRD006-
 10
10.18925907325082
 20
2.688016214370728
 30
0.0
 42
0.0893774219628053
  0
VERTEX
  5
222
  8
SignTorch_HUMMINGBIRD006-
 10
10.16858518533743
 20
2.755802998475223
 30
0.0
 42
0.0562600257223158
  0
VERTEX
  5
223
  8
SignTorch_HUMMINGBIRD006-
 10
10.07113407325082
 20
2.902391214370728
 30
0.0
 42
0.1016907598016743
  0
VERTEX
  5
224
  8
SignTorch_HUMMINGBIRD006-
 10
9.878842618186988
 20
3.054423519596261
 30
0.0
 42
0.1580788563727528
  0
VERTEX
  5
225
  8
SignTorch_HUMMINGBIRD006-
 10
9.720727823250824
 20
3.078766214370727
 30
0.0
 42
0.0535706433054559
  0
VERTEX
  5
226
  8
SignTorch_HUMMINGBIRD006-
 10
9.555284790799881
 20
3.033362025163356
 30
0.0
 42
0.0547257014576689
  0
VERTEX
  5
227
  8
SignTorch_HUMMINGBIRD006-
 10
9.406634073250823
 20
2.955172464370727
 30
0.0
 42
0.0409092313627644
  0
VERTEX
  5
228
  8
SignTorch_HUMMINGBIRD006-
 10
9.348524745358182
 20
2.908627691129285
 30
0.0
 42
0.5226015165021335
  0
VERTEX
  5
229
  8
SignTorch_HUMMINGBIRD006-
 10
9.359759073250824
 20
2.834016214370727
 30
0.0
 42
0.1236945465987521
  0
VERTEX
  5
22A
  8
SignTorch_HUMMINGBIRD006-
 10
9.464842390118436
 20
2.811389971402726
 30
0.0
 42
-0.1016637208957733
  0
VERTEX
  5
22B
  8
SignTorch_HUMMINGBIRD006-
 10
9.888634073250824
 20
2.739266214370727
 30
0.0
 42
-0.0045781940361292
  0
VERTEX
  5
22C
  8
SignTorch_HUMMINGBIRD006-
 10
9.957173301900125
 20
2.711862215651032
 30
0.0
 42
0.0077331140295496
  0
SEQEND
  5
22D
  8
SignTorch_HUMMINGBIRD006-
  0
POLYLINE
  5
53
  8
SignTorch_HUMMINGBIRD006-
 66
     1
 10
0.0
 20
0.0
 30
0.0
 70
     1
  0
VERTEX
  5
22E
  8
SignTorch_HUMMINGBIRD006-
 10
9.816262979500824
 20
3.541826761245727
 30
0.0
 42
0.0724987934393212
  0
VERTEX
  5
22F
  8
SignTorch_HUMMINGBIRD006-
 10
9.496568467356838
 20
3.376469818627033
 30
0.0
 42
0.1174296534530321
  0
VERTEX
  5
230
  8
SignTorch_HUMMINGBIRD006-
 10
9.402634073250823
 20
3.268266214370728
 30
0.0
 42
0.0980586368915119
  0
VERTEX
  5
231
  8
SignTorch_HUMMINGBIRD006-
 10
9.391640612326269
 20
3.230831937441851
 30
0.0
 42
0.0271534553982089
  0
VERTEX
  5
232
  8
SignTorch_HUMMINGBIRD006-
 10
9.386634073250823
 20
3.091266214370727
 30
0.0
 42
0.0726375911430648
  0
VERTEX
  5
233
  8
SignTorch_HUMMINGBIRD006-
 10
9.393968740338568
 20
3.04679445708337
 30
0.0
 42
0.3889770104113786
  0
VERTEX
  5
234
  8
SignTorch_HUMMINGBIRD006-
 10
9.418884073250823
 20
3.032516214370727
 30
0.0
 42
0.0833514598458867
  0
VERTEX
  5
235
  8
SignTorch_HUMMINGBIRD006-
 10
9.46478031875192
 20
3.051267974334445
 30
0.0
 42
-0.0551517718649822
  0
VERTEX
  5
236
  8
SignTorch_HUMMINGBIRD006-
 10
9.547915323250823
 20
3.090813089370727
 30
0.0
 42
0.0293529521065329
  0
VERTEX
  5
237
  8
SignTorch_HUMMINGBIRD006-
 10
9.614750246482268
 20
3.118481028006316
 30
0.0
 42
0.1093354216725264
  0
VERTEX
  5
238
  8
SignTorch_HUMMINGBIRD006-
 10
9.691634073250823
 20
3.179266214370728
 30
0.0
 42
-0.0598480222408029
  0
VERTEX
  5
239
  8
SignTorch_HUMMINGBIRD006-
 10
9.871089667561494
 20
3.352320806648993
 30
0.0
 42
-0.0533493431750643
  0
VERTEX
  5
23A
  8
SignTorch_HUMMINGBIRD006-
 10
10.11063407325082
 20
3.496266214370728
 30
0.0
 42
0.065895442828956
  0
VERTEX
  5
23B
  8
SignTorch_HUMMINGBIRD006-
 10
10.18148911685874
 20
3.54129255165164
 30
0.0
 42
0.5155601862154854
  0
VERTEX
  5
23C
  8
SignTorch_HUMMINGBIRD006-
 10
10.17769462012582
 20
3.589264261245727
 30
0.0
 42
0.161383270377036
  0
VERTEX
  5
23D
  8
SignTorch_HUMMINGBIRD006-
 10
10.10546308762088
 20
3.605402858835532
 30
0.0
 42
0.0581670484432561
  0
SEQEND
  5
23E
  8
SignTorch_HUMMINGBIRD006-
  0
POLYLINE
  5
54
  8
SignTorch_HUMMINGBIRD006-
 66
     1
 10
0.0
 20
0.0
 30
0.0
 70
     1
  0
VERTEX
  5
23F
  8
SignTorch_HUMMINGBIRD006-
 10
9.168884073250823
 20
3.734266214370727
 30
0.0
 42
-0.0180298521545624
  0
VERTEX
  5
240
  8
SignTorch_HUMMINGBIRD006-
 10
9.097440033405071
 20
4.047995562829476
 30
0.0
 42
0.0527313394821232
  0
VERTEX
  5
241
  8
SignTorch_HUMMINGBIRD006-
 10
9.074178995125823
 20
4.125039651870727
 30
0.0
 42
0.0951780064666452
  0
VERTEX
  5
242
  8
SignTorch_HUMMINGBIRD006-
 10
9.05400879836971
 20
4.155271178026654
 30
0.0
 42
0.3188731861232295
  0
VERTEX
  5
243
  8
SignTorch_HUMMINGBIRD006-
 10
9.042346963875822
 20
4.157336526870727
 30
0.0
 42
0.1949898085505181
  0
VERTEX
  5
244
  8
SignTorch_HUMMINGBIRD006-
 10
9.024345938911816
 20
4.137763070104787
 30
0.0
 42
0.0336176159790652
  0
VERTEX
  5
245
  8
SignTorch_HUMMINGBIRD006-
 10
8.981634073250824
 20
3.995266214370727
 30
0.0
 42
0.0153617812005812
  0
VERTEX
  5
246
  8
SignTorch_HUMMINGBIRD006-
 10
8.916268462832093
 20
3.661307848843236
 30
0.0
 42
0.1151429051363851
  0
VERTEX
  5
247
  8
SignTorch_HUMMINGBIRD006-
 10
8.941343057625824
 20
3.285996683120727
 30
0.0
 42
0.0573597570934263
  0
VERTEX
  5
248
  8
SignTorch_HUMMINGBIRD006-
 10
9.06957997486323
 20
2.991417387490927
 30
0.0
 42
0.2864164992244835
  0
VERTEX
  5
249
  8
SignTorch_HUMMINGBIRD006-
 10
9.100096963875822
 20
2.975229104995727
 30
0.0
 42
0.2573121371627707
  0
VERTEX
  5
24A
  8
SignTorch_HUMMINGBIRD006-
 10
9.126891884671105
 20
2.992550516411549
 30
0.0
 42
0.3068743966421469
  0
VERTEX
  5
24B
  8
SignTorch_HUMMINGBIRD006-
 10
9.119634073250824
 20
3.063266214370728
 30
0.0
 42
-0.0551641920750776
  0
VERTEX
  5
24C
  8
SignTorch_HUMMINGBIRD006-
 10
9.099068735652212
 20
3.094143685175666
 30
0.0
 42
-0.2152558059976366
  0
VERTEX
  5
24D
  8
SignTorch_HUMMINGBIRD006-
 10
9.098540323250823
 20
3.104047464370727
 30
0.0
 42
-0.3142262253103855
  0
VERTEX
  5
24E
  8
SignTorch_HUMMINGBIRD006-
 10
9.140092753178717
 20
3.131938125636451
 30
0.0
 42
-0.4208365360771233
  0
VERTEX
  5
24F
  8
SignTorch_HUMMINGBIRD006-
 10
9.167565713875824
 20
3.102820901870727
 30
0.0
 42
-0.0055644865864663
  0
VERTEX
  5
250
  8
SignTorch_HUMMINGBIRD006-
 10
9.164160761628523
 20
3.036707072730477
 30
0.0
 42
0.2768487944809688
  0
VERTEX
  5
251
  8
SignTorch_HUMMINGBIRD006-
 10
9.189194620125823
 20
2.988336526870728
 30
0.0
 42
0.5184644965745943
  0
VERTEX
  5
252
  8
SignTorch_HUMMINGBIRD006-
 10
9.219142609173414
 20
3.001124743334706
 30
0.0
 42
-0.1166510911734435
  0
VERTEX
  5
253
  8
SignTorch_HUMMINGBIRD006-
 10
9.233096963875823
 20
3.030547464370727
 30
0.0
 42
-0.6693863346249476
  0
VERTEX
  5
254
  8
SignTorch_HUMMINGBIRD006-
 10
9.252368642271984
 20
3.024920661877018
 30
0.0
 42
0.2325870547545308
  0
VERTEX
  5
255
  8
SignTorch_HUMMINGBIRD006-
 10
9.293087198250824
 20
2.960547464370727
 30
0.0
 42
0.3668856502652147
  0
VERTEX
  5
256
  8
SignTorch_HUMMINGBIRD006-
 10
9.320889453444032
 20
2.964849792738823
 30
0.0
 42
0.1775505260365806
  0
VERTEX
  5
257
  8
SignTorch_HUMMINGBIRD006-
 10
9.339634073250823
 20
3.014266214370728
 30
0.0
 42
0.0780906798648441
  0
VERTEX
  5
258
  8
SignTorch_HUMMINGBIRD006-
 10
9.302175207224698
 20
3.271237093277319
 30
0.0
 42
-0.0101638201264997
  0
SEQEND
  5
259
  8
SignTorch_HUMMINGBIRD006-
  0
POLYLINE
  5
55
  8
SignTorch_HUMMINGBIRD006-
 66
     1
 10
0.0
 20
0.0
 30
0.0
 70
     1
  0
VERTEX
  5
25A
  8
SignTorch_HUMMINGBIRD006-
 10
8.125634073250824
 20
3.448266214370727
 30
0.0
 42
-0.0206603712660183
  0
VERTEX
  5
25B
  8
SignTorch_HUMMINGBIRD006-
 10
8.062925020703593
 20
3.445030186239523
 30
0.0
 42
0.5999688740062613
  0
VERTEX
  5
25C
  8
SignTorch_HUMMINGBIRD006-
 10
8.039634073250824
 20
3.400266214370727
 30
0.0
 42
0.2001790689681469
  0
VERTEX
  5
25D
  8
SignTorch_HUMMINGBIRD006-
 10
8.113437073771745
 20
3.352477541721063
 30
0.0
 42
-0.0263000252269319
  0
VERTEX
  5
25E
  8
SignTorch_HUMMINGBIRD006-
 10
8.271415323250825
 20
3.315141214370727
 30
0.0
 42
-0.0489536544339903
  0
VERTEX
  5
25F
  8
SignTorch_HUMMINGBIRD006-
 10
8.430549302960289
 20
3.251119854655325
 30
0.0
 42
-0.0602643579485889
  0
VERTEX
  5
260
  8
SignTorch_HUMMINGBIRD006-
 10
8.545634073250824
 20
3.172266214370727
 30
0.0
 42
0.0162452131478797
  0
VERTEX
  5
261
  8
SignTorch_HUMMINGBIRD006-
 10
8.61403791891284
 20
3.115970294371367
 30
0.0
 42
0.1861484260139045
  0
VERTEX
  5
262
  8
SignTorch_HUMMINGBIRD006-
 10
8.700743448250824
 20
3.090281839370728
 30
0.0
 42
-0.0110973779554071
  0
VERTEX
  5
263
  8
SignTorch_HUMMINGBIRD006-
 10
8.830739497966444
 20
3.097811371837492
 30
0.0
 42
-0.0620467297103191
  0
VERTEX
  5
264
  8
SignTorch_HUMMINGBIRD006-
 10
8.854024698250823
 20
3.095750589370727
 30
0.0
 42
-0.0520534974648366
  0
VERTEX
  5
265
  8
SignTorch_HUMMINGBIRD006-
 10
8.925440494486923
 20
3.072383412492954
 30
0.0
 42
0.5314279237660011
  0
VERTEX
  5
266
  8
SignTorch_HUMMINGBIRD006-
 10
8.968634073250824
 20
3.099266214370727
 30
0.0
 42
0.1253578940075878
  0
VERTEX
  5
267
  8
SignTorch_HUMMINGBIRD006-
 10
8.957347743502979
 20
3.151633240281488
 30
0.0
 42
0.0467969305056601
  0
VERTEX
  5
268
  8
SignTorch_HUMMINGBIRD006-
 10
8.882712198250823
 20
3.271953714370727
 30
0.0
 42
0.1276397898538777
  0
VERTEX
  5
269
  8
SignTorch_HUMMINGBIRD006-
 10
8.774418241095221
 20
3.357423932262371
 30
0.0
 42
0.0691306846983059
  0
VERTEX
  5
26A
  8
SignTorch_HUMMINGBIRD006-
 10
8.401884073250823
 20
3.463016214370727
 30
0.0
 42
0.0551119456985677
  0
VERTEX
  5
26B
  8
SignTorch_HUMMINGBIRD006-
 10
8.320019205887975
 20
3.465312674677417
 30
0.0
 42
0.0027012473714109
  0
SEQEND
  5
26C
  8
SignTorch_HUMMINGBIRD006-
  0
POLYLINE
  5
56
  8
SignTorch_HUMMINGBIRD006-
 66
     1
 10
0.0
 20
0.0
 30
0.0
 70
     1
  0
VERTEX
  5
26D
  8
SignTorch_HUMMINGBIRD006-
 10
8.081759073250824
 20
3.668891214370727
 30
0.0
 42
-0.0819440309525242
  0
VERTEX
  5
26E
  8
SignTorch_HUMMINGBIRD006-
 10
8.353564425303176
 20
3.808777395358268
 30
0.0
 42
-0.0370032239359658
  0
VERTEX
  5
26F
  8
SignTorch_HUMMINGBIRD006-
 10
8.661384073250822
 20
3.883391214370727
 30
0.0
 42
0.0085010765937383
  0
VERTEX
  5
270
  8
SignTorch_HUMMINGBIRD006-
 10
8.762465528521213
 20
3.901872376228228
 30
0.0
 42
0.4553709883416592
  0
VERTEX
  5
271
  8
SignTorch_HUMMINGBIRD006-
 10
8.782954385750822
 20
3.937795511245727
 30
0.0
 42
0.1260939942834413
  0
VERTEX
  5
272
  8
SignTorch_HUMMINGBIRD006-
 10
8.754433231513135
 20
3.980656167052163
 30
0.0
 42
0.0630914115338596
  0
VERTEX
  5
273
  8
SignTorch_HUMMINGBIRD006-
 10
8.627134073250824
 20
4.069016214370727
 30
0.0
 42
0.1309264127671661
  0
VERTEX
  5
274
  8
SignTorch_HUMMINGBIRD006-
 10
8.48376313933803
 20
4.101133444870731
 30
0.0
 42
0.117428705141863
  0
VERTEX
  5
275
  8
SignTorch_HUMMINGBIRD006-
 10
8.223913370125823
 20
4.028158792495728
 30
0.0
 42
0.0644579345073729
  0
VERTEX
  5
276
  8
SignTorch_HUMMINGBIRD006-
 10
8.089824898800801
 20
3.929091757856524
 30
0.0
 42
0.0598534082411845
  0
VERTEX
  5
277
  8
SignTorch_HUMMINGBIRD006-
 10
7.976134073250824
 20
3.790266214370727
 30
0.0
 42
0.0045358217388291
  0
VERTEX
  5
278
  8
SignTorch_HUMMINGBIRD006-
 10
7.864309730013273
 20
3.610929716797313
 30
0.0
 42
0.3513653123048679
  0
VERTEX
  5
279
  8
SignTorch_HUMMINGBIRD006-
 10
7.874634073250824
 20
3.530266214370727
 30
0.0
 42
0.3159759632908989
  0
VERTEX
  5
27A
  8
SignTorch_HUMMINGBIRD006-
 10
7.899519950247699
 20
3.5263619665117
 30
0.0
 42
0.0691479090643426
  0
VERTEX
  5
27B
  8
SignTorch_HUMMINGBIRD006-
 10
7.986634073250823
 20
3.585266214370727
 30
0.0
 42
0.0059855877192847
  0
VERTEX
  5
27C
  8
SignTorch_HUMMINGBIRD006-
 10
8.033215834944132
 20
3.628194322519296
 30
0.0
 42
-0.0294453463935405
  0
SEQEND
  5
27D
  8
SignTorch_HUMMINGBIRD006-
  0
POLYLINE
  5
57
  8
SignTorch_HUMMINGBIRD006-
 66
     1
 10
0.0
 20
0.0
 30
0.0
 70
     1
  0
VERTEX
  5
27E
  8
SignTorch_HUMMINGBIRD006-
 10
7.792634073250824
 20
3.689266214370727
 30
0.0
 42
0.1562249209685399
  0
VERTEX
  5
27F
  8
SignTorch_HUMMINGBIRD006-
 10
7.81541642017478
 20
3.663726749997519
 30
0.0
 42
0.3515260738300448
  0
VERTEX
  5
280
  8
SignTorch_HUMMINGBIRD006-
 10
7.848454385750824
 20
3.668504495620727
 30
0.0
 42
0.1372106867731248
  0
VERTEX
  5
281
  8
SignTorch_HUMMINGBIRD006-
 10
7.881686090008712
 20
3.732587949730558
 30
0.0
 42
0.0433338237243902
  0
VERTEX
  5
282
  8
SignTorch_HUMMINGBIRD006-
 10
7.908384073250824
 20
3.955766214370727
 30
0.0
 42
0.0629358256470008
  0
VERTEX
  5
283
  8
SignTorch_HUMMINGBIRD006-
 10
7.885492871125766
 20
4.200513013549927
 30
0.0
 42
0.4106905686932987
  0
VERTEX
  5
284
  8
SignTorch_HUMMINGBIRD006-
 10
7.848634073250824
 20
4.224266214370727
 30
0.0
 42
0.2179081422076793
  0
VERTEX
  5
285
  8
SignTorch_HUMMINGBIRD006-
 10
7.814304756105718
 20
4.198917760532637
 30
0.0
 42
0.0541322941883971
  0
VERTEX
  5
286
  8
SignTorch_HUMMINGBIRD006-
 10
7.750634073250823
 20
4.047266214370727
 30
0.0
 42
0.1018815310216518
  0
VERTEX
  5
287
  8
SignTorch_HUMMINGBIRD006-
 10
7.737166332817556
 20
3.891556354694426
 30
0.0
 42
0.0755616757385052
  0
SEQEND
  5
288
  8
SignTorch_HUMMINGBIRD006-
  0
POLYLINE
  5
58
  8
SignTorch_HUMMINGBIRD006-
 66
     1
 10
0.0
 20
0.0
 30
0.0
 70
     1
  0
VERTEX
  5
289
  8
SignTorch_HUMMINGBIRD006-
 10
7.411634073250823
 20
3.210266214370727
 30
0.0
 42
0.0168459805560852
  0
VERTEX
  5
28A
  8
SignTorch_HUMMINGBIRD006-
 10
7.651863284143723
 20
3.336793808111214
 30
0.0
 42
0.4326862434180824
  0
VERTEX
  5
28B
  8
SignTorch_HUMMINGBIRD006-
 10
7.679134073250824
 20
3.450391214370727
 30
0.0
 42
0.298668861030475
  0
VERTEX
  5
28C
  8
SignTorch_HUMMINGBIRD006-
 10
7.578412026888301
 20
3.494073223320286
 30
0.0
 42
0.0829003851776529
  0
VERTEX
  5
28D
  8
SignTorch_HUMMINGBIRD006-
 10
7.233305948250824
 20
3.373281839370728
 30
0.0
 42
0.0518578234938846
  0
VERTEX
  5
28E
  8
SignTorch_HUMMINGBIRD006-
 10
7.088797805452813
 20
3.273197872350257
 30
0.0
 42
0.0590030863408511
  0
VERTEX
  5
28F
  8
SignTorch_HUMMINGBIRD006-
 10
6.984134073250823
 20
3.159391214370728
 30
0.0
 42
0.0581924061955849
  0
VERTEX
  5
290
  8
SignTorch_HUMMINGBIRD006-
 10
6.857793002383223
 20
2.933231442686123
 30
0.0
 42
0.0847666297559092
  0
VERTEX
  5
291
  8
SignTorch_HUMMINGBIRD006-
 10
6.841495401375823
 20
2.861717386245727
 30
0.0
 42
0.1132475623405754
  0
VERTEX
  5
292
  8
SignTorch_HUMMINGBIRD006-
 10
6.845516802635826
 20
2.83837388140672
 30
0.0
 42
0.2725832437113051
  0
VERTEX
  5
293
  8
SignTorch_HUMMINGBIRD006-
 10
6.853874307625823
 20
2.832119729995727
 30
0.0
 42
0.2231681929559503
  0
VERTEX
  5
294
  8
SignTorch_HUMMINGBIRD006-
 10
6.891579938979098
 20
2.844990479794596
 30
0.0
 42
-0.0122933183792578
  0
VERTEX
  5
295
  8
SignTorch_HUMMINGBIRD006-
 10
7.006884073250824
 20
2.951016214370727
 30
0.0
 42
-0.0373260651967764
  0
VERTEX
  5
296
  8
SignTorch_HUMMINGBIRD006-
 10
7.177460248665057
 20
3.07916104332142
 30
0.0
 42
-0.0296574137733231
  0
SEQEND
  5
297
  8
SignTorch_HUMMINGBIRD006-
  0
POLYLINE
  5
59
  8
SignTorch_HUMMINGBIRD006-
 66
     1
 10
0.0
 20
0.0
 30
0.0
 70
     1
  0
VERTEX
  5
298
  8
SignTorch_HUMMINGBIRD006-
 10
6.916759073250823
 20
3.351516214370727
 30
0.0
 42
-0.0165542687026538
  0
VERTEX
  5
299
  8
SignTorch_HUMMINGBIRD006-
 10
6.996026694763868
 20
3.317122871424986
 30
0.0
 42
0.1540023349418145
  0
VERTEX
  5
29A
  8
SignTorch_HUMMINGBIRD006-
 10
7.042290323250824
 20
3.310750589370727
 30
0.0
 42
0.4283049953695998
  0
VERTEX
  5
29B
  8
SignTorch_HUMMINGBIRD006-
 10
7.050904169444806
 20
3.32353976936239
 30
0.0
 42
0.1141458974397331
  0
VERTEX
  5
29C
  8
SignTorch_HUMMINGBIRD006-
 10
7.029634073250824
 20
3.368266214370728
 30
0.0
 42
0.0608778630828317
  0
VERTEX
  5
29D
  8
SignTorch_HUMMINGBIRD006-
 10
6.83861526496335
 20
3.556470983181833
 30
0.0
 42
0.0875000136189738
  0
VERTEX
  5
29E
  8
SignTorch_HUMMINGBIRD006-
 10
6.672634073250824
 20
3.643266214370728
 30
0.0
 42
0.0464324832220823
  0
VERTEX
  5
29F
  8
SignTorch_HUMMINGBIRD006-
 10
6.440656915268172
 20
3.693793755438762
 30
0.0
 42
0.1881432378729227
  0
VERTEX
  5
2A0
  8
SignTorch_HUMMINGBIRD006-
 10
6.280774698250823
 20
3.652922464370727
 30
0.0
 42
0.1565239456391064
  0
VERTEX
  5
2A1
  8
SignTorch_HUMMINGBIRD006-
 10
6.209168746345185
 20
3.556356776377652
 30
0.0
 42
0.4696255498228559
  0
VERTEX
  5
2A2
  8
SignTorch_HUMMINGBIRD006-
 10
6.262634073250823
 20
3.469266214370727
 30
0.0
 42
0.0463616592126013
  0
VERTEX
  5
2A3
  8
SignTorch_HUMMINGBIRD006-
 10
6.359107235604774
 20
3.464491721075698
 30
0.0
 42
-0.0829307742193604
  0
VERTEX
  5
2A4
  8
SignTorch_HUMMINGBIRD006-
 10
6.742384073250824
 20
3.417391214370727
 30
0.0
 42
-0.0183633014943461
  0
VERTEX
  5
2A5
  8
SignTorch_HUMMINGBIRD006-
 10
6.772467093137828
 20
3.407272181612317
 30
0.0
 42
-0.0037665730344112
  0
SEQEND
  5
2A6
  8
SignTorch_HUMMINGBIRD006-
  0
POLYLINE
  5
5A
  8
SignTorch_HUMMINGBIRD006-
 66
     1
 10
0.0
 20
0.0
 30
0.0
 70
     1
  0
VERTEX
  5
2A7
  8
SignTorch_HUMMINGBIRD006-
 10
6.412634073250823
 20
3.337266214370727
 30
0.0
 42
0.0868935617601055
  0
VERTEX
  5
2A8
  8
SignTorch_HUMMINGBIRD006-
 10
6.391055986595854
 20
3.398579674993692
 30
0.0
 42
0.292532513860484
  0
VERTEX
  5
2A9
  8
SignTorch_HUMMINGBIRD006-
 10
6.346634073250824
 20
3.422266214370727
 30
0.0
 42
0.2256511349413747
  0
VERTEX
  5
2AA
  8
SignTorch_HUMMINGBIRD006-
 10
6.27246816559621
 20
3.379487424576878
 30
0.0
 42
-0.1019691386664401
  0
VERTEX
  5
2AB
  8
SignTorch_HUMMINGBIRD006-
 10
6.210634073250824
 20
3.320266214370727
 30
0.0
 42
-0.0387969577894167
  0
VERTEX
  5
2AC
  8
SignTorch_HUMMINGBIRD006-
 10
6.125669220020155
 20
3.275705235132361
 30
0.0
 42
0.3748342927078696
  0
VERTEX
  5
2AD
  8
SignTorch_HUMMINGBIRD006-
 10
6.097997354500824
 20
3.218137308120728
 30
0.0
 42
0.1006134870453149
  0
VERTEX
  5
2AE
  8
SignTorch_HUMMINGBIRD006-
 10
6.127142758339971
 20
3.160722044605364
 30
0.0
 42
0.0333675410591993
  0
VERTEX
  5
2AF
  8
SignTorch_HUMMINGBIRD006-
 10
6.256462198250823
 20
3.018234964370728
 30
0.0
 42
0.0799217301507857
  0
VERTEX
  5
2B0
  8
SignTorch_HUMMINGBIRD006-
 10
6.440907615801589
 20
2.889982997722312
 30
0.0
 42
0.309833634034333
  0
VERTEX
  5
2B1
  8
SignTorch_HUMMINGBIRD006-
 10
6.484491495125823
 20
2.896695901870728
 30
0.0
 42
0.2754249551242918
  0
VERTEX
  5
2B2
  8
SignTorch_HUMMINGBIRD006-
 10
6.491181071036576
 20
2.919999571315809
 30
0.0
 42
-0.002741141050689
  0
VERTEX
  5
2B3
  8
SignTorch_HUMMINGBIRD006-
 10
6.467634073250824
 20
3.011266214370727
 30
0.0
 42
-0.0297002213843377
  0
VERTEX
  5
2B4
  8
SignTorch_HUMMINGBIRD006-
 10
6.436793264188383
 20
3.173702580939947
 30
0.0
 42
0.0091988606551139
  0
SEQEND
  5
2B5
  8
SignTorch_HUMMINGBIRD006-
  0
POLYLINE
  5
5B
  8
SignTorch_HUMMINGBIRD006-
 66
     1
 10
0.0
 20
0.0
 30
0.0
 70
     1
  0
VERTEX
  5
2B6
  8
SignTorch_HUMMINGBIRD006-
 10
6.802884073250824
 20
2.521578714370727
 30
0.0
 42
-0.0091391468506991
  0
VERTEX
  5
2B7
  8
SignTorch_HUMMINGBIRD006-
 10
7.064018670221241
 20
2.183411823787414
 30
0.0
 42
-0.0153290046775387
  0
VERTEX
  5
2B8
  8
SignTorch_HUMMINGBIRD006-
 10
7.209680948250824
 20
1.974391214370728
 30
0.0
 42
-0.0069069162998588
  0
VERTEX
  5
2B9
  8
SignTorch_HUMMINGBIRD006-
 10
7.294799895611095
 20
1.839870984329726
 30
0.0
 42
0.2276611056989774
  0
VERTEX
  5
2BA
  8
SignTorch_HUMMINGBIRD006-
 10
7.328884073250824
 20
1.817891214370727
 30
0.0
 42
0.0477147103263779
  0
VERTEX
  5
2BB
  8
SignTorch_HUMMINGBIRD006-
 10
7.421932029621733
 20
1.815125978460064
 30
0.0
 42
0.5000664309940341
  0
VERTEX
  5
2BC
  8
SignTorch_HUMMINGBIRD006-
 10
7.448509073250824
 20
1.855891214370727
 30
0.0
 42
0.0543221102657825
  0
VERTEX
  5
2BD
  8
SignTorch_HUMMINGBIRD006-
 10
7.439189672885066
 20
1.874787052628068
 30
0.0
 42
0.0134241002737027
  0
VERTEX
  5
2BE
  8
SignTorch_HUMMINGBIRD006-
 10
7.391634073250824
 20
1.945266214370727
 30
0.0
 42
0.0190664196504893
  0
VERTEX
  5
2BF
  8
SignTorch_HUMMINGBIRD006-
 10
6.766074198291391
 20
2.753707557514025
 30
0.0
 42
0.0352973375885399
  0
VERTEX
  5
2C0
  8
SignTorch_HUMMINGBIRD006-
 10
6.600634073250824
 20
2.925266214370727
 30
0.0
 42
0.1599215112588431
  0
VERTEX
  5
2C1
  8
SignTorch_HUMMINGBIRD006-
 10
6.552754219742607
 20
2.946408968214147
 30
0.0
 42
0.2962245804243133
  0
VERTEX
  5
2C2
  8
SignTorch_HUMMINGBIRD006-
 10
6.526134073250823
 20
2.932641214370727
 30
0.0
 42
0.2957212422644182
  0
VERTEX
  5
2C3
  8
SignTorch_HUMMINGBIRD006-
 10
6.530164196628871
 20
2.862682264759695
 30
0.0
 42
0.0124585489556607
  0
VERTEX
  5
2C4
  8
SignTorch_HUMMINGBIRD006-
 10
6.631634073250823
 20
2.731266214370727
 30
0.0
 42
0.002027400456315
  0
VERTEX
  5
2C5
  8
SignTorch_HUMMINGBIRD006-
 10
6.717431759897102
 20
2.626563496087807
 30
0.0
 42
-0.0036744984734347
  0
SEQEND
  5
2C6
  8
SignTorch_HUMMINGBIRD006-
  0
POLYLINE
  5
5C
  8
SignTorch_HUMMINGBIRD006-
 66
     1
 10
0.0
 20
0.0
 30
0.0
 70
     1
  0
VERTEX
  5
2C7
  8
SignTorch_HUMMINGBIRD006-
 10
6.853634073250824
 20
1.762266214370728
 30
0.0
 42
0.0186912419897752
  0
VERTEX
  5
2C8
  8
SignTorch_HUMMINGBIRD006-
 10
7.073713180267767
 20
1.747505081327628
 30
0.0
 42
0.1311467313585849
  0
VERTEX
  5
2C9
  8
SignTorch_HUMMINGBIRD006-
 10
7.191634073250823
 20
1.775266214370727
 30
0.0
 42
0.5425237596734428
  0
VERTEX
  5
2CA
  8
SignTorch_HUMMINGBIRD006-
 10
7.195835835361999
 20
1.824808343699644
 30
0.0
 42
0.112238220061511
  0
VERTEX
  5
2CB
  8
SignTorch_HUMMINGBIRD006-
 10
6.957999307625824
 20
1.936108011245727
 30
0.0
 42
0.0592703277691385
  0
VERTEX
  5
2CC
  8
SignTorch_HUMMINGBIRD006-
 10
6.592762390321458
 20
1.971187251709241
 30
0.0
 42
0.0470183902970095
  0
VERTEX
  5
2CD
  8
SignTorch_HUMMINGBIRD006-
 10
6.133971963875824
 20
1.917440042495727
 30
0.0
 42
0.0532412420136438
  0
VERTEX
  5
2CE
  8
SignTorch_HUMMINGBIRD006-
 10
5.961824731519823
 20
1.860970989272913
 30
0.0
 42
0.1412548107670473
  0
VERTEX
  5
2CF
  8
SignTorch_HUMMINGBIRD006-
 10
5.908884073250824
 20
1.816016214370727
 30
0.0
 42
0.1488062493984707
  0
VERTEX
  5
2D0
  8
SignTorch_HUMMINGBIRD006-
 10
5.902309941557375
 20
1.794041731192997
 30
0.0
 42
0.2805919298554576
  0
VERTEX
  5
2D1
  8
SignTorch_HUMMINGBIRD006-
 10
5.909040323250824
 20
1.783109964370728
 30
0.0
 42
0.1673578022950554
  0
VERTEX
  5
2D2
  8
SignTorch_HUMMINGBIRD006-
 10
5.958775149787295
 20
1.776092318712048
 30
0.0
 42
-0.0342681019837854
  0
VERTEX
  5
2D3
  8
SignTorch_HUMMINGBIRD006-
 10
6.156790323250824
 20
1.800563089370727
 30
0.0
 42
-0.0273442794353714
  0
VERTEX
  5
2D4
  8
SignTorch_HUMMINGBIRD006-
 10
6.374312082796596
 20
1.80051361260138
 30
0.0
 42
-0.0123624734879928
  0
SEQEND
  5
2D5
  8
SignTorch_HUMMINGBIRD006-
  0
POLYLINE
  5
5D
  8
SignTorch_HUMMINGBIRD006-
 66
     1
 10
0.0
 20
0.0
 30
0.0
 70
     1
  0
VERTEX
  5
2D6
  8
SignTorch_HUMMINGBIRD006-
 10
7.372009073250824
 20
1.519500589370728
 30
0.0
 42
0.1649003998803815
  0
VERTEX
  5
2D7
  8
SignTorch_HUMMINGBIRD006-
 10
7.450804023011672
 20
1.7072712550593
 30
0.0
 42
0.3933840210703788
  0
VERTEX
  5
2D8
  8
SignTorch_HUMMINGBIRD006-
 10
7.390530557625823
 20
1.781940042495727
 30
0.0
 42
0.1551604680013686
  0
VERTEX
  5
2D9
  8
SignTorch_HUMMINGBIRD006-
 10
7.289260434935142
 20
1.764996799215041
 30
0.0
 42
0.0961391084352678
  0
VERTEX
  5
2DA
  8
SignTorch_HUMMINGBIRD006-
 10
7.088884073250823
 20
1.607766214370727
 30
0.0
 42
0.0450170646494263
  0
VERTEX
  5
2DB
  8
SignTorch_HUMMINGBIRD006-
 10
6.983516649032592
 20
1.461355782734046
 30
0.0
 42
0.0236018873074854
  0
VERTEX
  5
2DC
  8
SignTorch_HUMMINGBIRD006-
 10
6.822852823250823
 20
1.157688089370728
 30
0.0
 42
0.0476173779139755
  0
VERTEX
  5
2DD
  8
SignTorch_HUMMINGBIRD006-
 10
6.763317485140984
 20
0.9916481060418447
 30
0.0
 42
0.3351696760472064
  0
VERTEX
  5
2DE
  8
SignTorch_HUMMINGBIRD006-
 10
6.774088663094574
 20
0.9660066928863525
 30
0.0
 42
0.2674159616410465
  0
VERTEX
  5
2DF
  8
SignTorch_HUMMINGBIRD006-
 10
6.801738812154025
 20
0.9659043631781522
 30
0.0
 42
0.0425001933456939
  0
VERTEX
  5
2E0
  8
SignTorch_HUMMINGBIRD006-
 10
6.935634073250824
 20
1.058266214370728
 30
0.0
 42
0.0404145699481143
  0
VERTEX
  5
2E1
  8
SignTorch_HUMMINGBIRD006-
 10
7.1404374733184
 20
1.256693325259207
 30
0.0
 42
-0.0009378596591137
  0
SEQEND
  5
2E2
  8
SignTorch_HUMMINGBIRD006-
  0
POLYLINE
  5
5E
  8
SignTorch_HUMMINGBIRD006-
 66
     1
 10
0.0
 20
0.0
 30
0.0
 70
     1
  0
VERTEX
  5
2E3
  8
SignTorch_HUMMINGBIRD006-
 10
7.663634073250823
 20
1.202266214370727
 30
0.0
 42
-0.032524164881822
  0
VERTEX
  5
2E4
  8
SignTorch_HUMMINGBIRD006-
 10
7.889314008985345
 20
0.7877603953488643
 30
0.0
 42
0.0327416591913444
  0
VERTEX
  5
2E5
  8
SignTorch_HUMMINGBIRD006-
 10
8.010930948250824
 20
0.5646177768707276
 30
0.0
 42
0.2338264669214769
  0
VERTEX
  5
2E6
  8
SignTorch_HUMMINGBIRD006-
 10
8.111983325277395
 20
0.5030885823095046
 30
0.0
 42
0.0817712720784434
  0
VERTEX
  5
2E7
  8
SignTorch_HUMMINGBIRD006-
 10
8.190805948250823
 20
0.5090630893707275
 30
0.0
 42
0.1842169681814193
  0
VERTEX
  5
2E8
  8
SignTorch_HUMMINGBIRD006-
 10
8.207025778891676
 20
0.520235576591869
 30
0.0
 42
0.2556529338681053
  0
VERTEX
  5
2E9
  8
SignTorch_HUMMINGBIRD006-
 10
8.208524698250823
 20
0.5347818393707275
 30
0.0
 42
0.0652894630818993
  0
VERTEX
  5
2EA
  8
SignTorch_HUMMINGBIRD006-
 10
8.160232445442146
 20
0.6175265845106233
 30
0.0
 42
-0.0390143502481715
  0
VERTEX
  5
2EB
  8
SignTorch_HUMMINGBIRD006-
 10
8.062634073250823
 20
0.7662662143707274
 30
0.0
 42
0.0127972432779599
  0
VERTEX
  5
2EC
  8
SignTorch_HUMMINGBIRD006-
 10
7.835473540060256
 20
1.155479093509712
 30
0.0
 42
0.0131902089683074
  0
VERTEX
  5
2ED
  8
SignTorch_HUMMINGBIRD006-
 10
7.595759073250823
 20
1.521141214370727
 30
0.0
 42
0.0210580940673276
  0
VERTEX
  5
2EE
  8
SignTorch_HUMMINGBIRD006-
 10
7.519942838766575
 20
1.621128729601799
 30
0.0
 42
0.5096981964142694
  0
VERTEX
  5
2EF
  8
SignTorch_HUMMINGBIRD006-
 10
7.464509073250824
 20
1.617641214370727
 30
0.0
 42
0.2681155141911256
  0
VERTEX
  5
2F0
  8
SignTorch_HUMMINGBIRD006-
 10
7.460617455368358
 20
1.523477615513658
 30
0.0
 42
0.0255181966926362
  0
VERTEX
  5
2F1
  8
SignTorch_HUMMINGBIRD006-
 10
7.557634073250824
 20
1.359266214370727
 30
0.0
 42
0.0072338031453449
  0
VERTEX
  5
2F2
  8
SignTorch_HUMMINGBIRD006-
 10
7.611047246799226
 20
1.281045172307865
 30
0.0
 42
-0.0124976362859599
  0
SEQEND
  5
2F3
  8
SignTorch_HUMMINGBIRD006-
  0
POLYLINE
  5
5F
  8
SignTorch_HUMMINGBIRD006-
 66
     1
 10
0.0
 20
0.0
 30
0.0
 70
     1
  0
VERTEX
  5
2F4
  8
SignTorch_HUMMINGBIRD006-
 10
7.965634073250824
 20
1.313266214370727
 30
0.0
 42
0.0881059244071509
  0
VERTEX
  5
2F5
  8
SignTorch_HUMMINGBIRD006-
 10
8.005839889000452
 20
1.30221326135295
 30
0.0
 42
0.4402643355484782
  0
VERTEX
  5
2F6
  8
SignTorch_HUMMINGBIRD006-
 10
8.026348917000824
 20
1.320824808120727
 30
0.0
 42
0.1198283920251875
  0
VERTEX
  5
2F7
  8
SignTorch_HUMMINGBIRD006-
 10
8.015365165248625
 20
1.366881061264659
 30
0.0
 42
0.054280544103199
  0
VERTEX
  5
2F8
  8
SignTorch_HUMMINGBIRD006-
 10
7.958634073250823
 20
1.453266214370727
 30
0.0
 42
0.0795908368845419
  0
VERTEX
  5
2F9
  8
SignTorch_HUMMINGBIRD006-
 10
7.81285802098585
 20
1.58174412238294
 30
0.0
 42
0.0890070837550098
  0
VERTEX
  5
2FA
  8
SignTorch_HUMMINGBIRD006-
 10
7.651634073250825
 20
1.647266214370728
 30
0.0
 42
0.0584359868340053
  0
VERTEX
  5
2FB
  8
SignTorch_HUMMINGBIRD006-
 10
7.611790081194017
 20
1.650931370250378
 30
0.0
 42
0.5049770517469933
  0
VERTEX
  5
2FC
  8
SignTorch_HUMMINGBIRD006-
 10
7.587009073250824
 20
1.615516214370727
 30
0.0
 42
0.12654618268047
  0
VERTEX
  5
2FD
  8
SignTorch_HUMMINGBIRD006-
 10
7.641322604988123
 20
1.531971127486407
 30
0.0
 42
0.0747762516623564
  0
SEQEND
  5
2FE
  8
SignTorch_HUMMINGBIRD006-
  0
POLYLINE
  5
60
  8
SignTorch_HUMMINGBIRD006-
 66
     1
 10
0.0
 20
0.0
 30
0.0
 70
     1
  0
VERTEX
  5
2FF
  8
SignTorch_HUMMINGBIRD006-
 10
8.463634073250823
 20
1.614266214370727
 30
0.0
 42
0.0074334616033132
  0
VERTEX
  5
300
  8
SignTorch_HUMMINGBIRD006-
 10
8.570779644549784
 20
1.351603151848808
 30
0.0
 42
0.0461179885482219
  0
VERTEX
  5
301
  8
SignTorch_HUMMINGBIRD006-
 10
8.592518838875824
 20
1.311270120620727
 30
0.0
 42
0.1429427120432949
  0
VERTEX
  5
302
  8
SignTorch_HUMMINGBIRD006-
 10
8.610003045929185
 20
1.296534076220442
 30
0.0
 42
0.2208344980085645
  0
VERTEX
  5
303
  8
SignTorch_HUMMINGBIRD006-
 10
8.625212198250823
 20
1.296813089370727
 30
0.0
 42
0.0877547256673099
  0
VERTEX
  5
304
  8
SignTorch_HUMMINGBIRD006-
 10
8.65857556846594
 20
1.321041670223228
 30
0.0
 42
-0.0246125676542445
  0
VERTEX
  5
305
  8
SignTorch_HUMMINGBIRD006-
 10
8.688634073250824
 20
1.349266214370727
 30
0.0
 42
0.0405705626638099
  0
VERTEX
  5
306
  8
SignTorch_HUMMINGBIRD006-
 10
8.73387043882662
 20
1.394541081695598
 30
0.0
 42
0.1883536210975696
  0
VERTEX
  5
307
  8
SignTorch_HUMMINGBIRD006-
 10
8.738509073250823
 20
1.408016214370727
 30
0.0
 42
0.1078012190570825
  0
VERTEX
  5
308
  8
SignTorch_HUMMINGBIRD006-
 10
8.72387847552741
 20
1.464007475968139
 30
0.0
 42
-0.0153419110772232
  0
VERTEX
  5
309
  8
SignTorch_HUMMINGBIRD006-
 10
8.625680948250825
 20
1.672766214370727
 30
0.0
 42
0.0485317061215444
  0
VERTEX
  5
30A
  8
SignTorch_HUMMINGBIRD006-
 10
8.555516198259271
 20
1.79939492544653
 30
0.0
 42
0.2587192987338649
  0
VERTEX
  5
30B
  8
SignTorch_HUMMINGBIRD006-
 10
8.529634073250822
 20
1.812266214370727
 30
0.0
 42
0.1271828777153902
  0
VERTEX
  5
30C
  8
SignTorch_HUMMINGBIRD006-
 10
8.503805671725196
 20
1.804337218184795
 30
0.0
 42
-0.0438804078022762
  0
VERTEX
  5
30D
  8
SignTorch_HUMMINGBIRD006-
 10
8.479634073250825
 20
1.792266214370727
 30
0.0
 42
0.0281540825584512
  0
VERTEX
  5
30E
  8
SignTorch_HUMMINGBIRD006-
 10
8.441406855362922
 20
1.774653534863174
 30
0.0
 42
0.3085742208981599
  0
VERTEX
  5
30F
  8
SignTorch_HUMMINGBIRD006-
 10
8.421216104500823
 20
1.736260354995727
 30
0.0
 42
0.05509759818128
  0
VERTEX
  5
310
  8
SignTorch_HUMMINGBIRD006-
 10
8.425443484397247
 20
1.717751400798905
 30
0.0
 42
0.0094552832682867
  0
SEQEND
  5
311
  8
SignTorch_HUMMINGBIRD006-
  0
POLYLINE
  5
61
  8
SignTorch_HUMMINGBIRD006-
 66
     1
 10
0.0
 20
0.0
 30
0.0
 70
     1
  0
VERTEX
  5
312
  8
SignTorch_HUMMINGBIRD006-
 10
8.167634073250824
 20
1.780453714370728
 30
0.0
 42
0.0248148082005053
  0
VERTEX
  5
313
  8
SignTorch_HUMMINGBIRD006-
 10
8.433473344780055
 20
1.830924249206097
 30
0.0
 42
0.1393264148831649
  0
VERTEX
  5
314
  8
SignTorch_HUMMINGBIRD006-
 10
8.476224893563323
 20
1.855068948745727
 30
0.0
 42
0.3240239182610928
  0
VERTEX
  5
315
  8
SignTorch_HUMMINGBIRD006-
 10
8.47892746746065
 20
1.87258110174347
 30
0.0
 42
0.1612856039209957
  0
VERTEX
  5
316
  8
SignTorch_HUMMINGBIRD006-
 10
8.455368448250825
 20
1.895766214370727
 30
0.0
 42
0.0660491299524796
  0
VERTEX
  5
317
  8
SignTorch_HUMMINGBIRD006-
 10
8.346768556667175
 20
1.932440424183784
 30
0.0
 42
0.0300592284927642
  0
VERTEX
  5
318
  8
SignTorch_HUMMINGBIRD006-
 10
8.098009073250823
 20
1.965891214370727
 30
0.0
 42
0.1272736017708645
  0
VERTEX
  5
319
  8
SignTorch_HUMMINGBIRD006-
 10
7.650444065564789
 20
1.884624753619901
 30
0.0
 42
0.1722604861206823
  0
VERTEX
  5
31A
  8
SignTorch_HUMMINGBIRD006-
 10
7.497634073250823
 20
1.735266214370727
 30
0.0
 42
0.1899033501337377
  0
VERTEX
  5
31B
  8
SignTorch_HUMMINGBIRD006-
 10
7.49514489006288
 20
1.704338180359612
 30
0.0
 42
0.2489381770349231
  0
VERTEX
  5
31C
  8
SignTorch_HUMMINGBIRD006-
 10
7.512259073250823
 20
1.687141214370727
 30
0.0
 42
0.0582452466397249
  0
VERTEX
  5
31D
  8
SignTorch_HUMMINGBIRD006-
 10
7.573431083795453
 20
1.675788835336228
 30
0.0
 42
0.044254202977214
  0
VERTEX
  5
31E
  8
SignTorch_HUMMINGBIRD006-
 10
7.705759073250824
 20
1.678609964370728
 30
0.0
 42
0.0653856667202143
  0
VERTEX
  5
31F
  8
SignTorch_HUMMINGBIRD006-
 10
7.830103359736092
 20
1.709085499681182
 30
0.0
 42
-0.061940396430202
  0
VERTEX
  5
320
  8
SignTorch_HUMMINGBIRD006-
 10
8.060634073250824
 20
1.767266214370727
 30
0.0
 42
-0.002245073389157
  0
VERTEX
  5
321
  8
SignTorch_HUMMINGBIRD006-
 10
8.114157990636157
 20
1.773665904827176
 30
0.0
 42
0.0058724023990272
  0
SEQEND
  5
322
  8
SignTorch_HUMMINGBIRD006-
  0
POLYLINE
  5
62
  8
SignTorch_HUMMINGBIRD006-
 66
     1
 10
0.0
 20
0.0
 30
0.0
 70
     1
  0
VERTEX
  5
323
  8
SignTorch_HUMMINGBIRD006-
 10
7.726634073250824
 20
2.330266214370728
 30
0.0
 42
0.0471110809057751
  0
VERTEX
  5
324
  8
SignTorch_HUMMINGBIRD006-
 10
7.771918969882629
 20
2.406497731536351
 30
0.0
 42
0.5472686478363318
  0
VERTEX
  5
325
  8
SignTorch_HUMMINGBIRD006-
 10
7.747634073250823
 20
2.445266214370727
 30
0.0
 42
0.1121433252679396
  0
VERTEX
  5
326
  8
SignTorch_HUMMINGBIRD006-
 10
7.681975400793275
 20
2.431020411472705
 30
0.0
 42
0.086553711789857
  0
VERTEX
  5
327
  8
SignTorch_HUMMINGBIRD006-
 10
7.504928995125823
 20
2.307361917495728
 30
0.0
 42
0.1161165816267532
  0
VERTEX
  5
328
  8
SignTorch_HUMMINGBIRD006-
 10
7.38959806587569
 20
2.122270999318491
 30
0.0
 42
0.2973169233433013
  0
VERTEX
  5
329
  8
SignTorch_HUMMINGBIRD006-
 10
7.438509073250824
 20
1.932266214370727
 30
0.0
 42
0.2234967199742508
  0
VERTEX
  5
32A
  8
SignTorch_HUMMINGBIRD006-
 10
7.47675313111526
 20
1.920390109024436
 30
0.0
 42
0.2192364727611387
  0
VERTEX
  5
32B
  8
SignTorch_HUMMINGBIRD006-
 10
7.511053995125824
 20
1.942391214370728
 30
0.0
 42
0.0487505175542849
  0
VERTEX
  5
32C
  8
SignTorch_HUMMINGBIRD006-
 10
7.546992446643116
 20
2.01289424437827
 30
0.0
 42
-0.0610943377176707
  0
VERTEX
  5
32D
  8
SignTorch_HUMMINGBIRD006-
 10
7.697634073250823
 20
2.291266214370728
 30
0.0
 42
-0.0091473065882442
  0
VERTEX
  5
32E
  8
SignTorch_HUMMINGBIRD006-
 10
7.712074991128976
 20
2.310810147230563
 30
0.0
 42
0.0061172846453002
  0
SEQEND
  5
32F
  8
SignTorch_HUMMINGBIRD006-
  0
POLYLINE
  5
63
  8
SignTorch_HUMMINGBIRD006-
 66
     1
 10
0.0
 20
0.0
 30
0.0
 70
     1
  0
VERTEX
  5
330
  8
SignTorch_HUMMINGBIRD006-
 10
7.820634073250822
 20
2.642266214370728
 30
0.0
 42
-0.0680022261326692
  0
VERTEX
  5
331
  8
SignTorch_HUMMINGBIRD006-
 10
7.818021607603014
 20
2.823042468446522
 30
0.0
 42
0.0209133831786478
  0
VERTEX
  5
332
  8
SignTorch_HUMMINGBIRD006-
 10
7.832384073250823
 20
3.003266214370727
 30
0.0
 42
0.0686410040636787
  0
VERTEX
  5
333
  8
SignTorch_HUMMINGBIRD006-
 10
7.809713798304312
 20
3.230670200114423
 30
0.0
 42
0.1343842344687717
  0
VERTEX
  5
334
  8
SignTorch_HUMMINGBIRD006-
 10
7.752634073250824
 20
3.334266214370728
 30
0.0
 42
0.4409789060653032
  0
VERTEX
  5
335
  8
SignTorch_HUMMINGBIRD006-
 10
7.683527758550772
 20
3.332149298351399
 30
0.0
 42
0.0947049226444883
  0
VERTEX
  5
336
  8
SignTorch_HUMMINGBIRD006-
 10
7.633302042000823
 20
3.244565042495728
 30
0.0
 42
0.1312391237899914
  0
VERTEX
  5
337
  8
SignTorch_HUMMINGBIRD006-
 10
7.608677445381047
 20
2.897537383987226
 30
0.0
 42
0.1077685613633128
  0
VERTEX
  5
338
  8
SignTorch_HUMMINGBIRD006-
 10
7.774634073250824
 20
2.510266214370727
 30
0.0
 42
0.0181362971147317
  0
VERTEX
  5
339
  8
SignTorch_HUMMINGBIRD006-
 10
7.826478187877417
 20
2.442887933072106
 30
0.0
 42
0.6818233791701722
  0
VERTEX
  5
33A
  8
SignTorch_HUMMINGBIRD006-
 10
7.862118448250824
 20
2.454625589370727
 30
0.0
 42
0.1035783517353204
  0
VERTEX
  5
33B
  8
SignTorch_HUMMINGBIRD006-
 10
7.852010395591272
 20
2.521227536106426
 30
0.0
 42
-0.0517444994841394
  0
SEQEND
  5
33C
  8
SignTorch_HUMMINGBIRD006-
  0
POLYLINE
  5
64
  8
SignTorch_HUMMINGBIRD006-
 66
     1
 10
0.0
 20
0.0
 30
0.0
 70
     1
  0
VERTEX
  5
33D
  8
SignTorch_HUMMINGBIRD006-
 10
8.213634073250823
 20
2.644266214370728
 30
0.0
 42
0.3428479381608546
  0
VERTEX
  5
33E
  8
SignTorch_HUMMINGBIRD006-
 10
8.184499372742055
 20
2.653325703701693
 30
0.0
 42
-0.4743424092270598
  0
VERTEX
  5
33F
  8
SignTorch_HUMMINGBIRD006-
 10
8.079532510750825
 20
2.714365823745728
 30
0.0
 42
-0.1672312473477341
  0
VERTEX
  5
340
  8
SignTorch_HUMMINGBIRD006-
 10
8.097217727490216
 20
2.815486037945305
 30
0.0
 42
0.1871254242132704
  0
VERTEX
  5
341
  8
SignTorch_HUMMINGBIRD006-
 10
8.104634073250825
 20
2.870266214370727
 30
0.0
 42
0.0521351125823598
  0
VERTEX
  5
342
  8
SignTorch_HUMMINGBIRD006-
 10
8.072378217277253
 20
2.961573473223197
 30
0.0
 42
-0.0063276282412003
  0
VERTEX
  5
343
  8
SignTorch_HUMMINGBIRD006-
 10
7.997259073250823
 20
3.124891214370727
 30
0.0
 42
-0.0106587274071865
  0
VERTEX
  5
344
  8
SignTorch_HUMMINGBIRD006-
 10
7.806086775247778
 20
3.580697030404073
 30
0.0
 42
0.0098866686675136
  0
VERTEX
  5
345
  8
SignTorch_HUMMINGBIRD006-
 10
7.615618448250824
 20
4.036797464370728
 30
0.0
 42
0.0026764092115968
  0
VERTEX
  5
346
  8
SignTorch_HUMMINGBIRD006-
 10
7.538729319989522
 20
4.208644349947812
 30
0.0
 42
-0.0086078244205897
  0
VERTEX
  5
347
  8
SignTorch_HUMMINGBIRD006-
 10
7.463884073250823
 20
4.381391214370728
 30
0.0
 42
0.0156850573394581
  0
VERTEX
  5
348
  8
SignTorch_HUMMINGBIRD006-
 10
7.424562908707704
 20
4.468736785425217
 30
0.0
 42
0.0796013783932264
  0
VERTEX
  5
349
  8
SignTorch_HUMMINGBIRD006-
 10
7.413634073250823
 20
4.484266214370728
 30
0.0
 42
0.0602877754172999
  0
VERTEX
  5
34A
  8
SignTorch_HUMMINGBIRD006-
 10
7.396289307025167
 20
4.498242424670385
 30
0.0
 42
0.0115540513496122
  0
VERTEX
  5
34B
  8
SignTorch_HUMMINGBIRD006-
 10
7.296634073250823
 20
4.557266214370728
 30
0.0
 42
0.0638192701777995
  0
VERTEX
  5
34C
  8
SignTorch_HUMMINGBIRD006-
 10
7.263298690960474
 20
4.570741501963736
 30
0.0
 42
0.5288245191007784
  0
VERTEX
  5
34D
  8
SignTorch_HUMMINGBIRD006-
 10
7.247977823250823
 20
4.557406839370728
 30
0.0
 42
0.1012815454875222
  0
VERTEX
  5
34E
  8
SignTorch_HUMMINGBIRD006-
 10
7.26834543695344
 20
4.495977444260487
 30
0.0
 42
-0.0262047236345579
  0
VERTEX
  5
34F
  8
SignTorch_HUMMINGBIRD006-
 10
7.297634073250824
 20
4.438266214370728
 30
0.0
 42
-0.0125117296087723
  0
VERTEX
  5
350
  8
SignTorch_HUMMINGBIRD006-
 10
7.467125466228678
 20
4.028514052430761
 30
0.0
 42
0.0477999967691763
  0
VERTEX
  5
351
  8
SignTorch_HUMMINGBIRD006-
 10
7.516634073250824
 20
3.929266214370728
 30
0.0
 42
0.0431436859176361
  0
VERTEX
  5
352
  8
SignTorch_HUMMINGBIRD006-
 10
7.587304820455436
 20
3.835230242889227
 30
0.0
 42
-0.0729603181589483
  0
VERTEX
  5
353
  8
SignTorch_HUMMINGBIRD006-
 10
7.707925088875824
 20
3.653137308120727
 30
0.0
 42
-0.0870036361960312
  0
VERTEX
  5
354
  8
SignTorch_HUMMINGBIRD006-
 10
7.730340920884839
 20
3.570804994543949
 30
0.0
 42
-0.114619427903392
  0
VERTEX
  5
355
  8
SignTorch_HUMMINGBIRD006-
 10
7.721511026375824
 20
3.506277933120727
 30
0.0
 42
0.3345231018879148
  0
VERTEX
  5
356
  8
SignTorch_HUMMINGBIRD006-
 10
7.754320218888402
 20
3.392780608741249
 30
0.0
 42
-0.1743474695093958
  0
VERTEX
  5
357
  8
SignTorch_HUMMINGBIRD006-
 10
7.874352823250823
 20
3.210297464370727
 30
0.0
 42
-0.0939070271776382
  0
VERTEX
  5
358
  8
SignTorch_HUMMINGBIRD006-
 10
7.881553702137278
 20
3.064444689331043
 30
0.0
 42
0.1095979689136651
  0
VERTEX
  5
359
  8
SignTorch_HUMMINGBIRD006-
 10
7.887868448250823
 20
2.986063089370727
 30
0.0
 42
0.0570745180793688
  0
VERTEX
  5
35A
  8
SignTorch_HUMMINGBIRD006-
 10
7.92460908987565
 20
2.902159884700269
 30
0.0
 42
-0.0311876130594984
  0
VERTEX
  5
35B
  8
SignTorch_HUMMINGBIRD006-
 10
7.965634073250824
 20
2.820266214370727
 30
0.0
 42
-0.0119233028896395
  0
VERTEX
  5
35C
  8
SignTorch_HUMMINGBIRD006-
 10
8.057963566760133
 20
2.587896594598067
 30
0.0
 42
0.0105059489820479
  0
VERTEX
  5
35D
  8
SignTorch_HUMMINGBIRD006-
 10
8.149634073250825
 20
2.355266214370728
 30
0.0
 42
-0.0263281116593644
  0
VERTEX
  5
35E
  8
SignTorch_HUMMINGBIRD006-
 10
8.247789088253807
 20
2.081054797532647
 30
0.0
 42
0.0541926708745128
  0
VERTEX
  5
35F
  8
SignTorch_HUMMINGBIRD006-
 10
8.276110635750824
 20
2.013951761245727
 30
0.0
 42
0.1911261954285405
  0
VERTEX
  5
360
  8
SignTorch_HUMMINGBIRD006-
 10
8.32096183676438
 20
1.977276903980579
 30
0.0
 42
0.0017051473174388
  0
VERTEX
  5
361
  8
SignTorch_HUMMINGBIRD006-
 10
8.470634073250825
 20
1.930266214370727
 30
0.0
 42
0.1649504897741242
  0
VERTEX
  5
362
  8
SignTorch_HUMMINGBIRD006-
 10
8.494847744816102
 20
1.930896724576224
 30
0.0
 42
0.3125136311517778
  0
VERTEX
  5
363
  8
SignTorch_HUMMINGBIRD006-
 10
8.502696573250825
 20
1.942078714370727
 30
0.0
 42
0.1229720259235648
  0
VERTEX
  5
364
  8
SignTorch_HUMMINGBIRD006-
 10
8.496613644761526
 20
1.967098365398959
 30
0.0
 42
-0.0211423030640867
  0
VERTEX
  5
365
  8
SignTorch_HUMMINGBIRD006-
 10
8.452837198250824
 20
2.059859964370728
 30
0.0
 42
-0.0121663479923854
  0
VERTEX
  5
366
  8
SignTorch_HUMMINGBIRD006-
 10
8.37175058594768
 20
2.266266872609576
 30
0.0
 42
0.0146640893253747
  0
VERTEX
  5
367
  8
SignTorch_HUMMINGBIRD006-
 10
8.289634073250824
 20
2.472266214370727
 30
0.0
 42
-0.0138004888982313
  0
VERTEX
  5
368
  8
SignTorch_HUMMINGBIRD006-
 10
8.244134630959325
 20
2.585836584654893
 30
0.0
 42
0.0639108155334073
  0
SEQEND
  5
369
  8
SignTorch_HUMMINGBIRD006-
  0
POLYLINE
  5
65
  8
SignTorch_HUMMINGBIRD006-
 66
     1
 10
0.0
 20
0.0
 30
0.0
 70
     1
  0
VERTEX
  5
36A
  8
SignTorch_HUMMINGBIRD006-
 10
8.685134073250824
 20
2.772891214370727
 30
0.0
 42
-0.0007155884320861
  0
VERTEX
  5
36B
  8
SignTorch_HUMMINGBIRD006-
 10
8.874007461696339
 20
2.757791898461508
 30
0.0
 42
0.2306049342587076
  0
VERTEX
  5
36C
  8
SignTorch_HUMMINGBIRD006-
 10
8.936575479500824
 20
2.782209573745728
 30
0.0
 42
0.0476161815043495
  0
VERTEX
  5
36D
  8
SignTorch_HUMMINGBIRD006-
 10
9.013809416737843
 20
2.883748922161456
 30
0.0
 42
0.2301844857628557
  0
VERTEX
  5
36E
  8
SignTorch_HUMMINGBIRD006-
 10
9.016649698250824
 20
2.911328714370727
 30
0.0
 42
0.1783906746972027
  0
VERTEX
  5
36F
  8
SignTorch_HUMMINGBIRD006-
 10
8.95343333776188
 20
2.985936732572285
 30
0.0
 42
0.138508852470241
  0
VERTEX
  5
370
  8
SignTorch_HUMMINGBIRD006-
 10
8.759634073250824
 20
3.033266214370727
 30
0.0
 42
0.0611224294863794
  0
VERTEX
  5
371
  8
SignTorch_HUMMINGBIRD006-
 10
8.438833124349191
 20
2.982209934755371
 30
0.0
 42
0.1399663717514863
  0
VERTEX
  5
372
  8
SignTorch_HUMMINGBIRD006-
 10
8.177727823250823
 20
2.819219339370727
 30
0.0
 42
0.0801172862364523
  0
VERTEX
  5
373
  8
SignTorch_HUMMINGBIRD006-
 10
8.126686627467503
 20
2.740410914724642
 30
0.0
 42
0.4523999164075439
  0
VERTEX
  5
374
  8
SignTorch_HUMMINGBIRD006-
 10
8.135071573250823
 20
2.722359964370727
 30
0.0
 42
0.1522717092664673
  0
VERTEX
  5
375
  8
SignTorch_HUMMINGBIRD006-
 10
8.180421930539916
 20
2.723084749596798
 30
0.0
 42
-0.01860494770929
  0
VERTEX
  5
376
  8
SignTorch_HUMMINGBIRD006-
 10
8.353509073250823
 20
2.773043558120727
 30
0.0
 42
-0.0703376933821243
  0
VERTEX
  5
377
  8
SignTorch_HUMMINGBIRD006-
 10
8.471219713008951
 20
2.785252108405543
 30
0.0
 42
-0.0103119423510894
  0
SEQEND
  5
378
  8
SignTorch_HUMMINGBIRD006-
  0
POLYLINE
  5
66
  8
SignTorch_HUMMINGBIRD006-
 66
     1
 10
0.0
 20
0.0
 30
0.0
 70
     1
  0
VERTEX
  5
379
  8
SignTorch_HUMMINGBIRD006-
 10
8.867430948250824
 20
2.339203714370727
 30
0.0
 42
0.0285999727381665
  0
VERTEX
  5
37A
  8
SignTorch_HUMMINGBIRD006-
 10
8.8737671540043
 20
2.107303642886761
 30
0.0
 42
0.1496374252697926
  0
VERTEX
  5
37B
  8
SignTorch_HUMMINGBIRD006-
 10
8.890634073250824
 20
2.065266214370728
 30
0.0
 42
0.4622704040495856
  0
VERTEX
  5
37C
  8
SignTorch_HUMMINGBIRD006-
 10
8.913242236881352
 20
2.064675274092742
 30
0.0
 42
0.1093235321548508
  0
VERTEX
  5
37D
  8
SignTorch_HUMMINGBIRD006-
 10
8.952384073250824
 20
2.134141214370727
 30
0.0
 42
0.0288114334009567
  0
VERTEX
  5
37E
  8
SignTorch_HUMMINGBIRD006-
 10
8.990708580061337
 20
2.292299250574389
 30
0.0
 42
-0.0755514036216538
  0
VERTEX
  5
37F
  8
SignTorch_HUMMINGBIRD006-
 10
9.043587198250824
 20
2.446203714370728
 30
0.0
 42
-0.0909736041624585
  0
VERTEX
  5
380
  8
SignTorch_HUMMINGBIRD006-
 10
9.206946078664123
 20
2.655300588133373
 30
0.0
 42
0.1762219428751917
  0
VERTEX
  5
381
  8
SignTorch_HUMMINGBIRD006-
 10
9.238592813485198
 20
2.713813089370728
 30
0.0
 42
0.135594061754864
  0
VERTEX
  5
382
  8
SignTorch_HUMMINGBIRD006-
 10
9.2341260408911
 20
2.750060514386645
 30
0.0
 42
0.0649225090770173
  0
VERTEX
  5
383
  8
SignTorch_HUMMINGBIRD006-
 10
9.196634073250824
 20
2.815266214370727
 30
0.0
 42
0.3717052725620259
  0
VERTEX
  5
384
  8
SignTorch_HUMMINGBIRD006-
 10
9.078520338137908
 20
2.840139644242083
 30
0.0
 42
0.1715889322279425
  0
VERTEX
  5
385
  8
SignTorch_HUMMINGBIRD006-
 10
8.921384073250824
 20
2.663391214370727
 30
0.0
 42
0.0555429981047516
  0
VERTEX
  5
386
  8
SignTorch_HUMMINGBIRD006-
 10
8.887363636256769
 20
2.543222482838118
 30
0.0
 42
0.0337743436993277
  0
SEQEND
  5
387
  8
SignTorch_HUMMINGBIRD006-
  0
POLYLINE
  5
67
  8
SignTorch_HUMMINGBIRD006-
 66
     1
 10
0.0
 20
0.0
 30
0.0
 70
     1
  0
VERTEX
  5
388
  8
SignTorch_HUMMINGBIRD006-
 10
9.410524698250823
 20
2.490219339370727
 30
0.0
 42
0.0850829937848833
  0
VERTEX
  5
389
  8
SignTorch_HUMMINGBIRD006-
 10
9.570608573605908
 20
2.447204530869637
 30
0.0
 42
0.2822372605420989
  0
VERTEX
  5
38A
  8
SignTorch_HUMMINGBIRD006-
 10
9.618665323250823
 20
2.470859964370727
 30
0.0
 42
0.2173566672032517
  0
VERTEX
  5
38B
  8
SignTorch_HUMMINGBIRD006-
 10
9.624269127734175
 20
2.512068671861623
 30
0.0
 42
0.1067731564638517
  0
VERTEX
  5
38C
  8
SignTorch_HUMMINGBIRD006-
 10
9.535749307625824
 20
2.671953714370727
 30
0.0
 42
0.1569063568335638
  0
VERTEX
  5
38D
  8
SignTorch_HUMMINGBIRD006-
 10
9.423923505521323
 20
2.739159214004341
 30
0.0
 42
0.2140226899367378
  0
VERTEX
  5
38E
  8
SignTorch_HUMMINGBIRD006-
 10
9.328087198250824
 20
2.720547464370727
 30
0.0
 42
0.1113309304861878
  0
VERTEX
  5
38F
  8
SignTorch_HUMMINGBIRD006-
 10
9.235688807741537
 20
2.618445153981361
 30
0.0
 42
0.3431749096386861
  0
VERTEX
  5
390
  8
SignTorch_HUMMINGBIRD006-
 10
9.242930948250823
 20
2.569656839370727
 30
0.0
 42
0.0940973194886911
  0
VERTEX
  5
391
  8
SignTorch_HUMMINGBIRD006-
 10
9.274203018521273
 20
2.549407679924386
 30
0.0
 42
-0.0113189205329581
  0
SEQEND
  5
392
  8
SignTorch_HUMMINGBIRD006-
  0
POLYLINE
  5
68
  8
SignTorch_HUMMINGBIRD006-
 66
     1
 10
0.0
 20
0.0
 30
0.0
 70
     1
  0
VERTEX
  5
393
  8
SignTorch_HUMMINGBIRD006-
 10
9.917634073250824
 20
1.768766214370727
 30
0.0
 42
-0.0315249378352236
  0
VERTEX
  5
394
  8
SignTorch_HUMMINGBIRD006-
 10
10.04229365661152
 20
1.894212922740681
 30
0.0
 42
0.0863850269230902
  0
VERTEX
  5
395
  8
SignTorch_HUMMINGBIRD006-
 10
10.06988407325082
 20
1.928828714370727
 30
0.0
 42
0.4114249937821196
  0
VERTEX
  5
396
  8
SignTorch_HUMMINGBIRD006-
 10
10.0648439622404
 20
1.946353749091064
 30
0.0
 42
0.1521765494265496
  0
VERTEX
  5
397
  8
SignTorch_HUMMINGBIRD006-
 10
10.02263407325082
 20
1.955266214370728
 30
0.0
 42
0.0780782011373618
  0
VERTEX
  5
398
  8
SignTorch_HUMMINGBIRD006-
 10
9.825921032211333
 20
1.905081930570135
 30
0.0
 42
0.0691506847812709
  0
VERTEX
  5
399
  8
SignTorch_HUMMINGBIRD006-
 10
9.630009073250823
 20
1.786656839370728
 30
0.0
 42
0.0829601356854293
  0
VERTEX
  5
39A
  8
SignTorch_HUMMINGBIRD006-
 10
9.490072552325856
 20
1.628217474806309
 30
0.0
 42
0.1841029957140471
  0
VERTEX
  5
39B
  8
SignTorch_HUMMINGBIRD006-
 10
9.450634073250825
 20
1.427266214370727
 30
0.0
 42
0.1610156925750159
  0
VERTEX
  5
39C
  8
SignTorch_HUMMINGBIRD006-
 10
9.47070758787995
 20
1.389598114332651
 30
0.0
 42
0.2334232896064742
  0
VERTEX
  5
39D
  8
SignTorch_HUMMINGBIRD006-
 10
9.499589151375822
 20
1.380561136245727
 30
0.0
 42
0.121940015632973
  0
VERTEX
  5
39E
  8
SignTorch_HUMMINGBIRD006-
 10
9.554648099776681
 20
1.40371447489642
 30
0.0
 42
0.0496518649130326
  0
VERTEX
  5
39F
  8
SignTorch_HUMMINGBIRD006-
 10
9.789634073250824
 20
1.618266214370728
 30
0.0
 42
0.0118619383847756
  0
VERTEX
  5
3A0
  8
SignTorch_HUMMINGBIRD006-
 10
9.85386694912036
 20
1.693318153830524
 30
0.0
 42
-0.0087669206184127
  0
SEQEND
  5
3A1
  8
SignTorch_HUMMINGBIRD006-
  0
POLYLINE
  5
69
  8
SignTorch_HUMMINGBIRD006-
 66
     1
 10
0.0
 20
0.0
 30
0.0
 70
     1
  0
VERTEX
  5
3A2
  8
SignTorch_HUMMINGBIRD006-
 10
9.343634073250824
 20
1.292266214370727
 30
0.0
 42
0.0106337559311314
  0
VERTEX
  5
3A3
  8
SignTorch_HUMMINGBIRD006-
 10
9.386909186362468
 20
0.9877070643633126
 30
0.0
 42
0.0469249411847931
  0
VERTEX
  5
3A4
  8
SignTorch_HUMMINGBIRD006-
 10
9.404610635750824
 20
0.9201314487457275
 30
0.0
 42
0.2095309643902811
  0
VERTEX
  5
3A5
  8
SignTorch_HUMMINGBIRD006-
 10
9.42562285897379
 20
0.8981589034070534
 30
0.0
 42
0.2696800132897521
  0
VERTEX
  5
3A6
  8
SignTorch_HUMMINGBIRD006-
 10
9.449684854500823
 20
0.9013580112457275
 30
0.0
 42
0.2416320206504548
  0
VERTEX
  5
3A7
  8
SignTorch_HUMMINGBIRD006-
 10
9.483374809114636
 20
0.9733647745605122
 30
0.0
 42
0.0324224021027782
  0
VERTEX
  5
3A8
  8
SignTorch_HUMMINGBIRD006-
 10
9.468634073250824
 20
1.118266214370728
 30
0.0
 42
-0.0036896904802217
  0
VERTEX
  5
3A9
  8
SignTorch_HUMMINGBIRD006-
 10
9.419597186001873
 20
1.424416833062079
 30
0.0
 42
-0.02797794876539
  0
VERTEX
  5
3AA
  8
SignTorch_HUMMINGBIRD006-
 10
9.387012979500824
 20
1.764565042495727
 30
0.0
 42
-0.0254442325709926
  0
VERTEX
  5
3AB
  8
SignTorch_HUMMINGBIRD006-
 10
9.392614716903639
 20
2.259569161343105
 30
0.0
 42
0.0453791260545257
  0
VERTEX
  5
3AC
  8
SignTorch_HUMMINGBIRD006-
 10
9.389087198250824
 20
2.383297464370727
 30
0.0
 42
0.061653451133672
  0
VERTEX
  5
3AD
  8
SignTorch_HUMMINGBIRD006-
 10
9.373284474464
 20
2.447222174584016
 30
0.0
 42
0.1492331070235153
  0
VERTEX
  5
3AE
  8
SignTorch_HUMMINGBIRD006-
 10
9.356259073250824
 20
2.469078714370727
 30
0.0
 42
0.0508328597659188
  0
VERTEX
  5
3AF
  8
SignTorch_HUMMINGBIRD006-
 10
9.33824613457515
 20
2.47918181420325
 30
0.0
 42
0.0086045369162577
  0
VERTEX
  5
3B0
  8
SignTorch_HUMMINGBIRD006-
 10
9.225790323250823
 20
2.525719339370728
 30
0.0
 42
0.1305375907176345
  0
VERTEX
  5
3B1
  8
SignTorch_HUMMINGBIRD006-
 10
9.197788320602866
 20
2.52896959813602
 30
0.0
 42
0.2838322417955838
  0
VERTEX
  5
3B2
  8
SignTorch_HUMMINGBIRD006-
 10
9.187227823250824
 20
2.520125589370727
 30
0.0
 42
0.189586163116676
  0
VERTEX
  5
3B3
  8
SignTorch_HUMMINGBIRD006-
 10
9.189725154418605
 20
2.474107952929942
 30
0.0
 42
-0.0710648689607302
  0
VERTEX
  5
3B4
  8
SignTorch_HUMMINGBIRD006-
 10
9.241634073250824
 20
2.298266214370727
 30
0.0
 42
-0.0179501363265858
  0
VERTEX
  5
3B5
  8
SignTorch_HUMMINGBIRD006-
 10
9.280226474256997
 20
1.946463173606519
 30
0.0
 42
0.0116289884058645
  0
SEQEND
  5
3B6
  8
SignTorch_HUMMINGBIRD006-
  0
POLYLINE
  5
6A
  8
SignTorch_HUMMINGBIRD006-
 66
     1
 10
0.0
 20
0.0
 30
0.0
 70
     1
  0
VERTEX
  5
3B7
  8
SignTorch_HUMMINGBIRD006-
 10
9.160509073250823
 20
1.288953714370727
 30
0.0
 42
0.092260558020439
  0
VERTEX
  5
3B8
  8
SignTorch_HUMMINGBIRD006-
 10
9.277187044165066
 20
1.301395968271852
 30
0.0
 42
0.2875653464173618
  0
VERTEX
  5
3B9
  8
SignTorch_HUMMINGBIRD006-
 10
9.303852823250823
 20
1.331766214370727
 30
0.0
 42
0.075014856521486
  0
VERTEX
  5
3BA
  8
SignTorch_HUMMINGBIRD006-
 10
9.304116162159817
 20
1.356216280856178
 30
0.0
 42
0.0255854885955429
  0
VERTEX
  5
3BB
  8
SignTorch_HUMMINGBIRD006-
 10
9.290634073250823
 20
1.426266214370727
 30
0.0
 42
0.311977266049195
  0
VERTEX
  5
3BC
  8
SignTorch_HUMMINGBIRD006-
 10
9.230008993448902
 20
1.479942619528672
 30
0.0
 42
0.1418922073701495
  0
VERTEX
  5
3BD
  8
SignTorch_HUMMINGBIRD006-
 10
8.875647745125823
 20
1.422014261245728
 30
0.0
 42
0.0968220831674217
  0
VERTEX
  5
3BE
  8
SignTorch_HUMMINGBIRD006-
 10
8.619433749844681
 20
1.232449987783139
 30
0.0
 42
0.0665279335448256
  0
VERTEX
  5
3BF
  8
SignTorch_HUMMINGBIRD006-
 10
8.533634073250823
 20
1.109141214370728
 30
0.0
 42
0.1524399335730093
  0
VERTEX
  5
3C0
  8
SignTorch_HUMMINGBIRD006-
 10
8.527683284887546
 20
1.074986475130497
 30
0.0
 42
0.3453679602580788
  0
VERTEX
  5
3C1
  8
SignTorch_HUMMINGBIRD006-
 10
8.539634073250824
 20
1.063266214370727
 30
0.0
 42
0.2197990318669202
  0
VERTEX
  5
3C2
  8
SignTorch_HUMMINGBIRD006-
 10
8.583127725135036
 20
1.077783028194736
 30
0.0
 42
-0.0393182894280932
  0
VERTEX
  5
3C3
  8
SignTorch_HUMMINGBIRD006-
 10
8.724384073250825
 20
1.191141214370727
 30
0.0
 42
-0.0850338133885522
  0
VERTEX
  5
3C4
  8
SignTorch_HUMMINGBIRD006-
 10
8.912134842037284
 20
1.27679535519363
 30
0.0
 42
-0.0863563083442888
  0
VERTEX
  5
3C5
  8
SignTorch_HUMMINGBIRD006-
 10
9.114634073250825
 20
1.294266214370728
 30
0.0
 42
-0.0155925819302916
  0
VERTEX
  5
3C6
  8
SignTorch_HUMMINGBIRD006-
 10
9.13756595660462
 20
1.291561462978802
 30
0.0
 42
0.017707667862082
  0
SEQEND
  5
3C7
  8
SignTorch_HUMMINGBIRD006-
  0
POLYLINE
  5
6B
  8
SignTorch_HUMMINGBIRD006-
 66
     1
 10
0.0
 20
0.0
 30
0.0
 70
     1
  0
VERTEX
  5
3C8
  8
SignTorch_HUMMINGBIRD006-
 10
9.086634073250822
 20
0.8532662143707275
 30
0.0
 42
0.0774623277819005
  0
VERTEX
  5
3C9
  8
SignTorch_HUMMINGBIRD006-
 10
9.084262987327236
 20
0.8061475892628374
 30
0.0
 42
0.3666858075873121
  0
VERTEX
  5
3CA
  8
SignTorch_HUMMINGBIRD006-
 10
9.107024698250823
 20
0.7843599643707275
 30
0.0
 42
0.1618490970152432
  0
VERTEX
  5
3CB
  8
SignTorch_HUMMINGBIRD006-
 10
9.21721689330441
 20
0.813709142992395
 30
0.0
 42
0.1642199416184026
  0
VERTEX
  5
3CC
  8
SignTorch_HUMMINGBIRD006-
 10
9.333649698250824
 20
0.9624849643707274
 30
0.0
 42
0.1049895390254878
  0
VERTEX
  5
3CD
  8
SignTorch_HUMMINGBIRD006-
 10
9.341026453669292
 20
1.019219297360298
 30
0.0
 42
0.003821285479672
  0
VERTEX
  5
3CE
  8
SignTorch_HUMMINGBIRD006-
 10
9.328634073250823
 20
1.160391214370728
 30
0.0
 42
0.010805718973773
  0
VERTEX
  5
3CF
  8
SignTorch_HUMMINGBIRD006-
 10
9.31953365381487
 20
1.237943838284583
 30
0.0
 42
0.4241789461546505
  0
VERTEX
  5
3D0
  8
SignTorch_HUMMINGBIRD006-
 10
9.302634073250823
 20
1.250266214370727
 30
0.0
 42
0.1598949574331023
  0
VERTEX
  5
3D1
  8
SignTorch_HUMMINGBIRD006-
 10
9.243931515108152
 20
1.218997869155518
 30
0.0
 42
0.0887982385984831
  0
VERTEX
  5
3D2
  8
SignTorch_HUMMINGBIRD006-
 10
9.143634073250825
 20
1.068266214370727
 30
0.0
 42
0.0377283012409434
  0
VERTEX
  5
3D3
  8
SignTorch_HUMMINGBIRD006-
 10
9.124280383405871
 20
1.012595358446009
 30
0.0
 42
0.0135656481172802
  0
SEQEND
  5
3D4
  8
SignTorch_HUMMINGBIRD006-
  0
POLYLINE
  5
6C
  8
SignTorch_HUMMINGBIRD006-
 66
     1
 10
0.0
 20
0.0
 30
0.0
 70
     1
  0
VERTEX
  5
3D5
  8
SignTorch_HUMMINGBIRD006-
 10
8.737134073250823
 20
0.8521412143707274
 30
0.0
 42
-0.0128583303322789
  0
VERTEX
  5
3D6
  8
SignTorch_HUMMINGBIRD006-
 10
8.765672985616668
 20
0.7214078579924601
 30
0.0
 42
0.2605740661854622
  0
VERTEX
  5
3D7
  8
SignTorch_HUMMINGBIRD006-
 10
8.787712198250823
 20
0.6951900424957276
 30
0.0
 42
0.1346030600798918
  0
VERTEX
  5
3D8
  8
SignTorch_HUMMINGBIRD006-
 10
8.82254461022392
 20
0.6918933212436366
 30
0.0
 42
0.056214071691218
  0
VERTEX
  5
3D9
  8
SignTorch_HUMMINGBIRD006-
 10
8.901749307625824
 20
0.7151451206207274
 30
0.0
 42
0.4283411697889851
  0
VERTEX
  5
3DA
  8
SignTorch_HUMMINGBIRD006-
 10
8.940076747792338
 20
0.8158850281568217
 30
0.0
 42
-0.0290044904139812
  0
VERTEX
  5
3DB
  8
SignTorch_HUMMINGBIRD006-
 10
8.884628213875823
 20
0.9516060581207275
 30
0.0
 42
-0.0098743555635364
  0
VERTEX
  5
3DC
  8
SignTorch_HUMMINGBIRD006-
 10
8.82762100731245
 20
1.129502470634613
 30
0.0
 42
0.3661410969509433
  0
VERTEX
  5
3DD
  8
SignTorch_HUMMINGBIRD006-
 10
8.786634073250825
 20
1.156266214370727
 30
0.0
 42
0.102914604187173
  0
VERTEX
  5
3DE
  8
SignTorch_HUMMINGBIRD006-
 10
8.754845670689223
 20
1.14542755916596
 30
0.0
 42
0.0563066135615567
  0
VERTEX
  5
3DF
  8
SignTorch_HUMMINGBIRD006-
 10
8.706196573250823
 20
1.108734964370727
 30
0.0
 42
0.2612053225018052
  0
VERTEX
  5
3E0
  8
SignTorch_HUMMINGBIRD006-
 10
8.690164582775855
 20
1.057110170423311
 30
0.0
 42
0.0076887713947762
  0
SEQEND
  5
3E1
  8
SignTorch_HUMMINGBIRD006-
  0
ENDSEC
  0
EOF
