  0
SECTION
  2
HEADER
  9
$ACADVER
  1
AC1009
  9
$DWGCODEPAGE
  3
ansi_1252
  9
$INSBASE
 10
0.0
 20
0.0
 30
0.0
  9
$EXTMIN
 10
3.443735156965496
 20
0.445651558177019
 30
0.0
  9
$EXTMAX
 10
11.53720252264294
 20
8.530510390398382
 30
0.0
  9
$LIMMIN
 10
0.0
 20
0.0
  9
$LIMMAX
 10
12.0
 20
9.0
  9
$ORTHOMODE
 70
     0
  9
$REGENMODE
 70
     1
  9
$FILLMODE
 70
     1
  9
$QTEXTMODE
 70
     0
  9
$MIRRTEXT
 70
     1
  9
$DRAGMODE
 70
     2
  9
$LTSCALE
 40
1.0
  9
$OSMODE
 70
    37
  9
$ATTMODE
 70
     1
  9
$TEXTSIZE
 40
0.2
  9
$TRACEWID
 40
0.05
  9
$TEXTSTYLE
  7
STANDARD
  9
$CLAYER
  8
0
  9
$CELTYPE
  6
BYLAYER
  9
$CECOLOR
 62
   256
  9
$DIMSCALE
 40
1.0
  9
$DIMASZ
 40
0.18
  9
$DIMEXO
 40
0.0625
  9
$DIMDLI
 40
0.38
  9
$DIMRND
 40
0.0
  9
$DIMDLE
 40
0.0
  9
$DIMEXE
 40
0.18
  9
$DIMTP
 40
0.0
  9
$DIMTM
 40
0.0
  9
$DIMTXT
 40
0.18
  9
$DIMCEN
 40
0.09
  9
$DIMTSZ
 40
0.0
  9
$DIMTOL
 70
     0
  9
$DIMLIM
 70
     0
  9
$DIMTIH
 70
     1
  9
$DIMTOH
 70
     1
  9
$DIMSE1
 70
     0
  9
$DIMSE2
 70
     0
  9
$DIMTAD
 70
     0
  9
$DIMZIN
 70
     0
  9
$DIMBLK
  1

  9
$DIMASO
 70
     1
  9
$DIMSHO
 70
     1
  9
$DIMPOST
  1

  9
$DIMAPOST
  1

  9
$DIMALT
 70
     0
  9
$DIMALTD
 70
     2
  9
$DIMALTF
 40
25.4
  9
$DIMLFAC
 40
1.0
  9
$DIMTOFL
 70
     0
  9
$DIMTVP
 40
0.0
  9
$DIMTIX
 70
     0
  9
$DIMSOXD
 70
     0
  9
$DIMSAH
 70
     0
  9
$DIMBLK1
  1

  9
$DIMBLK2
  1

  9
$DIMSTYLE
  2
STANDARD
  9
$DIMCLRD
 70
     0
  9
$DIMCLRE
 70
     0
  9
$DIMCLRT
 70
     0
  9
$DIMTFAC
 40
1.0
  9
$DIMGAP
 40
0.09
  9
$LUNITS
 70
     2
  9
$LUPREC
 70
     4
  9
$SKETCHINC
 40
0.1
  9
$FILLETRAD
 40
0.5
  9
$AUNITS
 70
     0
  9
$AUPREC
 70
     0
  9
$MENU
  1
.
  9
$ELEVATION
 40
0.0
  9
$PELEVATION
 40
0.0
  9
$THICKNESS
 40
0.0
  9
$LIMCHECK
 70
     0
  9
$CHAMFERA
 40
0.5
  9
$CHAMFERB
 40
0.5
  9
$SKPOLY
 70
     0
  9
$TDCREATE
 40
2454910.5
  9
$TDUPDATE
 40
2455562.353707673
  9
$TDINDWG
 40
0.0000000116
  9
$TDUSRTIMER
 40
0.0000000116
  9
$USRTIMER
 70
     1
  9
$ANGBASE
 50
0.0
  9
$ANGDIR
 70
     0
  9
$PDMODE
 70
     0
  9
$PDSIZE
 40
0.0
  9
$PLINEWID
 40
0.0
  9
$COORDS
 70
     1
  9
$SPLFRAME
 70
     0
  9
$SPLINETYPE
 70
     6
  9
$SPLINESEGS
 70
     8
  9
$ATTDIA
 70
     0
  9
$ATTREQ
 70
     1
  9
$HANDLING
 70
     1
  9
$HANDSEED
  5
5B4
  9
$SURFTAB1
 70
     6
  9
$SURFTAB2
 70
     6
  9
$SURFTYPE
 70
     6
  9
$SURFU
 70
     6
  9
$SURFV
 70
     6
  9
$UCSNAME
  2

  9
$UCSORG
 10
0.0
 20
0.0
 30
0.0
  9
$UCSXDIR
 10
1.0
 20
0.0
 30
0.0
  9
$UCSYDIR
 10
0.0
 20
1.0
 30
0.0
  9
$PUCSNAME
  2

  9
$PUCSORG
 10
0.0
 20
0.0
 30
0.0
  9
$PUCSXDIR
 10
1.0
 20
0.0
 30
0.0
  9
$PUCSYDIR
 10
0.0
 20
1.0
 30
0.0
  9
$USERI1
 70
     0
  9
$USERI2
 70
     0
  9
$USERI3
 70
     0
  9
$USERI4
 70
     0
  9
$USERI5
 70
     0
  9
$USERR1
 40
0.0
  9
$USERR2
 40
0.0
  9
$USERR3
 40
0.0
  9
$USERR4
 40
0.0
  9
$USERR5
 40
0.0
  9
$WORLDVIEW
 70
     1
  9
$SHADEDGE
 70
     3
  9
$SHADEDIF
 70
    70
  9
$TILEMODE
 70
     1
  9
$MAXACTVP
 70
    64
  9
$PLIMCHECK
 70
     0
  9
$PEXTMIN
 10
1.000000000000000E+20
 20
1.000000000000000E+20
 30
1.000000000000000E+20
  9
$PEXTMAX
 10
-1.000000000000000E+20
 20
-1.000000000000000E+20
 30
-1.000000000000000E+20
  9
$PLIMMIN
 10
0.0
 20
0.0
  9
$PLIMMAX
 10
12.0
 20
9.0
  9
$UNITMODE
 70
     0
  9
$VISRETAIN
 70
     1
  9
$PLINEGEN
 70
     0
  9
$PSLTSCALE
 70
     1
  0
ENDSEC
  0
SECTION
  2
TABLES
  0
TABLE
  2
VPORT
 70
     1
  0
VPORT
  2
*ACTIVE
 70
     0
 10
0.0
 20
0.0
 11
1.0
 21
1.0
 12
10.42990654205607
 22
4.5
 13
0.0
 23
0.0
 14
0.5
 24
0.5
 15
0.5
 25
0.5
 16
0.0
 26
0.0
 36
1.0
 17
0.0
 27
0.0
 37
0.0
 40
9.0
 41
1.972972972850329
 42
50.0
 43
0.0
 44
0.0
 50
0.0
 51
0.0
 71
     0
 72
   100
 73
     1
 74
     3
 75
     0
 76
     0
 77
     0
 78
     0
  0
ENDTAB
  0
TABLE
  2
LTYPE
 70
     2
  0
LTYPE
  2
CONTINUOUS
 70
     0
  3
Solid line
 72
    65
 73
     0
 40
0.0
  0
LTYPE
  2
CONTINUOUS2
 70
     0
  3
Solid Line
 72
    65
 73
     0
 40
0.0
  0
ENDTAB
  0
TABLE
  2
LAYER
 70
     2
  0
LAYER
  2
0
 70
     0
 62
     7
  6
CONTINUOUS
  0
LAYER
  2
SignTorch_HUMMINGBIRD2_
 70
     0
 62
    18
  6
CONTINUOUS
  0
ENDTAB
  0
TABLE
  2
STYLE
 70
     1
  0
STYLE
  2
STANDARD
 70
     0
 40
0.0
 41
1.0
 50
0.0
 71
     0
 42
0.2
  3
txt
  4

  0
ENDTAB
  0
TABLE
  2
VIEW
 70
     0
  0
ENDTAB
  0
TABLE
  2
UCS
 70
     0
  0
ENDTAB
  0
TABLE
  2
APPID
 70
     1
  0
APPID
  2
ACAD
 70
     0
  0
ENDTAB
  0
TABLE
  2
DIMSTYLE
 70
     1
  0
DIMSTYLE
  2
STANDARD
 70
     0
  3

  4

  5

  6

  7

 40
1.0
 41
0.18
 42
0.0625
 43
0.38
 44
0.18
 45
0.0
 46
0.0
 47
0.0
 48
0.0
140
0.18
141
0.09
142
0.0
143
25.4
144
1.0
145
0.0
146
1.0
147
0.09
 71
     0
 72
     0
 73
     1
 74
     1
 75
     0
 76
     0
 77
     0
 78
     0
170
     0
171
     2
172
     0
173
     0
174
     0
175
     0
176
     0
177
     0
178
     0
  0
ENDTAB
  0
ENDSEC
  0
SECTION
  2
BLOCKS
  0
BLOCK
  8
0
  2
$MODEL_SPACE
 70
     0
 10
0.0
 20
0.0
 30
0.0
  3
$MODEL_SPACE
  1

  0
ENDBLK
  5
21
  8
0
  0
BLOCK
 67
     1
  8
0
  2
$PAPER_SPACE
 70
     0
 10
0.0
 20
0.0
 30
0.0
  3
$PAPER_SPACE
  1

  0
ENDBLK
  5
1D
 67
     1
  8
0
  0
ENDSEC
  0
SECTION
  2
ENTITIES
  0
POLYLINE
  5
41
  8
SignTorch_HUMMINGBIRD2_
 66
     1
 10
0.0
 20
0.0
 30
0.0
 70
     1
  0
VERTEX
  5
78
  8
SignTorch_HUMMINGBIRD2_
 10
5.963461340692308
 20
5.288444444444444
 30
0.0
 42
-0.0730641253083381
  0
VERTEX
  5
79
  8
SignTorch_HUMMINGBIRD2_
 10
5.918620067093976
 20
5.28114637605346
 30
0.0
 42
-0.7650618306235188
  0
VERTEX
  5
7A
  8
SignTorch_HUMMINGBIRD2_
 10
5.911476965692308
 20
5.305975694444443
 30
0.0
 42
-0.0740647044621276
  0
VERTEX
  5
7B
  8
SignTorch_HUMMINGBIRD2_
 10
5.939666614385181
 20
5.31779181293489
 30
0.0
 42
0.1069757300993319
  0
VERTEX
  5
7C
  8
SignTorch_HUMMINGBIRD2_
 10
6.049055090692308
 20
5.372288194444444
 30
0.0
 42
-0.4037673247292251
  0
VERTEX
  5
7D
  8
SignTorch_HUMMINGBIRD2_
 10
6.099054191252653
 20
5.36766722483519
 30
0.0
 42
-0.3935822905247757
  0
VERTEX
  5
7E
  8
SignTorch_HUMMINGBIRD2_
 10
6.097070715692308
 20
5.316553819444444
 30
0.0
 42
-0.2404935813297042
  0
VERTEX
  5
7F
  8
SignTorch_HUMMINGBIRD2_
 10
6.06284520261455
 20
5.305588037289538
 30
0.0
 42
0.1173694655771877
  0
VERTEX
  5
80
  8
SignTorch_HUMMINGBIRD2_
 10
5.996461340692307
 20
5.300819444444444
 30
0.0
 42
0.0264729272760533
  0
VERTEX
  5
81
  8
SignTorch_HUMMINGBIRD2_
 10
5.97995851379079
 20
5.29463948284849
 30
0.0
 42
-0.026015739649347
  0
SEQEND
  5
82
  8
SignTorch_HUMMINGBIRD2_
  0
POLYLINE
  5
42
  8
SignTorch_HUMMINGBIRD2_
 66
     1
 10
0.0
 20
0.0
 30
0.0
 70
     1
  0
VERTEX
  5
83
  8
SignTorch_HUMMINGBIRD2_
 10
5.779461340692308
 20
5.215319444444445
 30
0.0
 42
-0.190174602542999
  0
VERTEX
  5
84
  8
SignTorch_HUMMINGBIRD2_
 10
5.785193598985846
 20
5.240998671772333
 30
0.0
 42
-0.450795873671375
  0
VERTEX
  5
85
  8
SignTorch_HUMMINGBIRD2_
 10
5.797976965692308
 20
5.242647569444444
 30
0.0
 42
-0.2260433894542085
  0
VERTEX
  5
86
  8
SignTorch_HUMMINGBIRD2_
 10
5.820509068985784
 20
5.190439051406095
 30
0.0
 42
0.1239842715437727
  0
VERTEX
  5
87
  8
SignTorch_HUMMINGBIRD2_
 10
5.832336340692308
 20
5.134819444444444
 30
0.0
 42
0.1102037673089686
  0
VERTEX
  5
88
  8
SignTorch_HUMMINGBIRD2_
 10
5.8625160669698
 20
5.097173191960926
 30
0.0
 42
-0.4985124858551883
  0
VERTEX
  5
89
  8
SignTorch_HUMMINGBIRD2_
 10
5.861086340692307
 20
5.048944444444444
 30
0.0
 42
-0.2206038356186097
  0
VERTEX
  5
8A
  8
SignTorch_HUMMINGBIRD2_
 10
5.808829473197491
 20
5.039327588760889
 30
0.0
 42
-0.323582440632763
  0
VERTEX
  5
8B
  8
SignTorch_HUMMINGBIRD2_
 10
5.784461340692308
 20
5.068694444444445
 30
0.0
 42
-0.0913748424743248
  0
VERTEX
  5
8C
  8
SignTorch_HUMMINGBIRD2_
 10
5.788230367064921
 20
5.101180781086194
 30
0.0
 42
0.1228697640853435
  0
VERTEX
  5
8D
  8
SignTorch_HUMMINGBIRD2_
 10
5.791461340692308
 20
5.161819444444444
 30
0.0
 42
0.0190656722732443
  0
VERTEX
  5
8E
  8
SignTorch_HUMMINGBIRD2_
 10
5.785226965980326
 20
5.188516874415589
 30
0.0
 42
-0.0278319930044761
  0
SEQEND
  5
8F
  8
SignTorch_HUMMINGBIRD2_
  0
POLYLINE
  5
43
  8
SignTorch_HUMMINGBIRD2_
 66
     1
 10
0.0
 20
0.0
 30
0.0
 70
     1
  0
VERTEX
  5
90
  8
SignTorch_HUMMINGBIRD2_
 10
5.883461340692308
 20
5.199819444444445
 30
0.0
 42
-0.0554033199984929
  0
VERTEX
  5
91
  8
SignTorch_HUMMINGBIRD2_
 10
5.854674127521754
 20
5.225389541939577
 30
0.0
 42
-0.5925772103419734
  0
VERTEX
  5
92
  8
SignTorch_HUMMINGBIRD2_
 10
5.861461340692308
 20
5.244819444444444
 30
0.0
 42
-0.2129289792264281
  0
VERTEX
  5
93
  8
SignTorch_HUMMINGBIRD2_
 10
5.906454784806178
 20
5.233102814784665
 30
0.0
 42
0.1464402980994883
  0
VERTEX
  5
94
  8
SignTorch_HUMMINGBIRD2_
 10
5.986461340692308
 20
5.200819444444444
 30
0.0
 42
-0.5911888044257451
  0
VERTEX
  5
95
  8
SignTorch_HUMMINGBIRD2_
 10
6.013421564749415
 20
5.138831914966785
 30
0.0
 42
-0.5296618945351493
  0
VERTEX
  5
96
  8
SignTorch_HUMMINGBIRD2_
 10
5.941961340692308
 20
5.143194444444444
 30
0.0
 42
0.0666104787141492
  0
VERTEX
  5
97
  8
SignTorch_HUMMINGBIRD2_
 10
5.923375156612265
 20
5.166719066316044
 30
0.0
 42
0.0383998346600318
  0
SEQEND
  5
98
  8
SignTorch_HUMMINGBIRD2_
  0
POLYLINE
  5
44
  8
SignTorch_HUMMINGBIRD2_
 66
     1
 10
0.0
 20
0.0
 30
0.0
 70
     1
  0
VERTEX
  5
99
  8
SignTorch_HUMMINGBIRD2_
 10
6.012461340692308
 20
4.802819444444444
 30
0.0
 42
0.0043186952525973
  0
VERTEX
  5
9A
  8
SignTorch_HUMMINGBIRD2_
 10
6.12460585548777
 20
4.499548036878602
 30
0.0
 42
-0.0647957687009612
  0
VERTEX
  5
9B
  8
SignTorch_HUMMINGBIRD2_
 10
6.179461340692308
 20
4.268819444444444
 30
0.0
 42
0.0121004747399328
  0
VERTEX
  5
9C
  8
SignTorch_HUMMINGBIRD2_
 10
6.191354642865281
 20
4.176560123478288
 30
0.0
 42
-0.0471764183118331
  0
VERTEX
  5
9D
  8
SignTorch_HUMMINGBIRD2_
 10
6.196758215692308
 20
4.083694444444445
 30
0.0
 42
0.0568375819642734
  0
VERTEX
  5
9E
  8
SignTorch_HUMMINGBIRD2_
 10
6.202219010438734
 20
4.013274718629719
 30
0.0
 42
0.5171851309456307
  0
VERTEX
  5
9F
  8
SignTorch_HUMMINGBIRD2_
 10
6.237410559442308
 20
3.997337022569445
 30
0.0
 42
0.1371686385207917
  0
VERTEX
  5
A0
  8
SignTorch_HUMMINGBIRD2_
 10
6.281659534794178
 20
4.04307907611395
 30
0.0
 42
0.0480285141380648
  0
VERTEX
  5
A1
  8
SignTorch_HUMMINGBIRD2_
 10
6.384251135614182
 20
4.285603135850694
 30
0.0
 42
0.0930255751532674
  0
VERTEX
  5
A2
  8
SignTorch_HUMMINGBIRD2_
 10
6.418042363042889
 20
4.568969857536041
 30
0.0
 42
0.1118524031125868
  0
VERTEX
  5
A3
  8
SignTorch_HUMMINGBIRD2_
 10
6.298109534051682
 20
4.971448838975694
 30
0.0
 42
0.0639082904939424
  0
VERTEX
  5
A4
  8
SignTorch_HUMMINGBIRD2_
 10
6.196645164379305
 20
5.107717743881327
 30
0.0
 42
-0.0874927545391272
  0
VERTEX
  5
A5
  8
SignTorch_HUMMINGBIRD2_
 10
6.172898840692308
 20
5.142944444444444
 30
0.0
 42
-0.5508795115506783
  0
VERTEX
  5
A6
  8
SignTorch_HUMMINGBIRD2_
 10
6.178608474112623
 20
5.151500667590377
 30
0.0
 42
-0.1072188861242666
  0
VERTEX
  5
A7
  8
SignTorch_HUMMINGBIRD2_
 10
6.218461340692308
 20
5.141819444444445
 30
0.0
 42
0.0190057028718059
  0
VERTEX
  5
A8
  8
SignTorch_HUMMINGBIRD2_
 10
6.368617519206794
 20
5.075855369018013
 30
0.0
 42
-0.0068197729510356
  0
VERTEX
  5
A9
  8
SignTorch_HUMMINGBIRD2_
 10
6.520336340692308
 20
5.013569444444444
 30
0.0
 42
-0.0094394975078389
  0
VERTEX
  5
AA
  8
SignTorch_HUMMINGBIRD2_
 10
6.710298715027715
 20
4.928264668634625
 30
0.0
 42
0.1491647719021961
  0
VERTEX
  5
AB
  8
SignTorch_HUMMINGBIRD2_
 10
6.762211340692308
 20
4.920694444444444
 30
0.0
 42
-0.2854922753372282
  0
VERTEX
  5
AC
  8
SignTorch_HUMMINGBIRD2_
 10
6.801150414983614
 20
4.904008271200799
 30
0.0
 42
-0.0173798413550337
  0
VERTEX
  5
AD
  8
SignTorch_HUMMINGBIRD2_
 10
6.824805090692307
 20
4.867506944444443
 30
0.0
 42
0.0136029650716814
  0
VERTEX
  5
AE
  8
SignTorch_HUMMINGBIRD2_
 10
6.939892756455736
 20
4.686942794141846
 30
0.0
 42
0.0654831328960635
  0
VERTEX
  5
AF
  8
SignTorch_HUMMINGBIRD2_
 10
7.116461340692307
 20
4.487819444444444
 30
0.0
 42
0.0940719154423945
  0
VERTEX
  5
B0
  8
SignTorch_HUMMINGBIRD2_
 10
7.433135734127277
 20
4.303552637237345
 30
0.0
 42
0.0981314565019032
  0
VERTEX
  5
B1
  8
SignTorch_HUMMINGBIRD2_
 10
7.781008215692307
 20
4.253194444444444
 30
0.0
 42
0.0041656014022414
  0
VERTEX
  5
B2
  8
SignTorch_HUMMINGBIRD2_
 10
7.842543058178457
 20
4.256903684826208
 30
0.0
 42
-0.2972360277560318
  0
VERTEX
  5
B3
  8
SignTorch_HUMMINGBIRD2_
 10
7.887461340692308
 20
4.231819444444444
 30
0.0
 42
-0.0543808693734097
  0
VERTEX
  5
B4
  8
SignTorch_HUMMINGBIRD2_
 10
7.909247614772942
 20
4.176472225761013
 30
0.0
 42
-0.0161650625706698
  0
VERTEX
  5
B5
  8
SignTorch_HUMMINGBIRD2_
 10
7.955523840692307
 20
3.982350694444444
 30
0.0
 42
0.0010083361387892
  0
VERTEX
  5
B6
  8
SignTorch_HUMMINGBIRD2_
 10
7.967222001896102
 20
3.925721538459931
 30
0.0
 42
-0.2417597222611109
  0
VERTEX
  5
B7
  8
SignTorch_HUMMINGBIRD2_
 10
7.963297278192308
 20
3.911467881944444
 30
0.0
 42
-0.3766207864291859
  0
VERTEX
  5
B8
  8
SignTorch_HUMMINGBIRD2_
 10
7.957365259583633
 20
3.910828874580156
 30
0.0
 42
-0.0714279785839258
  0
VERTEX
  5
B9
  8
SignTorch_HUMMINGBIRD2_
 10
7.937211340692308
 20
3.929819444444444
 30
0.0
 42
-0.0470183435712063
  0
VERTEX
  5
BA
  8
SignTorch_HUMMINGBIRD2_
 10
7.880577939418453
 20
4.016538709709301
 30
0.0
 42
0.1192291335030604
  0
VERTEX
  5
BB
  8
SignTorch_HUMMINGBIRD2_
 10
7.812135168817308
 20
4.094276475694445
 30
0.0
 42
0.1222988213522333
  0
VERTEX
  5
BC
  8
SignTorch_HUMMINGBIRD2_
 10
7.796856105215834
 20
4.100170544478686
 30
0.0
 42
0.3152763728548972
  0
VERTEX
  5
BD
  8
SignTorch_HUMMINGBIRD2_
 10
7.790771887567308
 20
4.096956163194445
 30
0.0
 42
0.202773835272035
  0
VERTEX
  5
BE
  8
SignTorch_HUMMINGBIRD2_
 10
7.789963977862053
 20
4.08602985889737
 30
0.0
 42
0.0391283165086565
  0
VERTEX
  5
BF
  8
SignTorch_HUMMINGBIRD2_
 10
7.811461340692309
 20
4.035819444444444
 30
0.0
 42
-0.0253094055191745
  0
VERTEX
  5
C0
  8
SignTorch_HUMMINGBIRD2_
 10
7.938622527834511
 20
3.760109973962143
 30
0.0
 42
-0.1287356603878489
  0
VERTEX
  5
C1
  8
SignTorch_HUMMINGBIRD2_
 10
7.946211340692308
 20
3.699944444444444
 30
0.0
 42
-0.1254095868984335
  0
VERTEX
  5
C2
  8
SignTorch_HUMMINGBIRD2_
 10
7.929526830592192
 20
3.658185152357083
 30
0.0
 42
0.1638866104314657
  0
VERTEX
  5
C3
  8
SignTorch_HUMMINGBIRD2_
 10
7.875586340692307
 20
3.486694444444444
 30
0.0
 42
0.0777439014501374
  0
VERTEX
  5
C4
  8
SignTorch_HUMMINGBIRD2_
 10
7.904682688020286
 20
3.322436496453526
 30
0.0
 42
0.0896882074297929
  0
VERTEX
  5
C5
  8
SignTorch_HUMMINGBIRD2_
 10
7.975336340692307
 20
3.195944444444444
 30
0.0
 42
0.0401484777560303
  0
VERTEX
  5
C6
  8
SignTorch_HUMMINGBIRD2_
 10
8.02422629704407
 20
3.145378132276096
 30
0.0
 42
-0.1363320453706637
  0
VERTEX
  5
C7
  8
SignTorch_HUMMINGBIRD2_
 10
8.062642981317307
 20
3.086460069444444
 30
0.0
 42
-0.0836348258366365
  0
VERTEX
  5
C8
  8
SignTorch_HUMMINGBIRD2_
 10
8.07417928918512
 20
3.00455564238533
 30
0.0
 42
-0.0238270345924394
  0
VERTEX
  5
C9
  8
SignTorch_HUMMINGBIRD2_
 10
8.052680090692308
 20
2.716881944444444
 30
0.0
 42
-0.0470836970602332
  0
VERTEX
  5
CA
  8
SignTorch_HUMMINGBIRD2_
 10
8.042389787780293
 20
2.670060684026544
 30
0.0
 42
-0.1090589813950347
  0
VERTEX
  5
CB
  8
SignTorch_HUMMINGBIRD2_
 10
8.031867590692308
 20
2.652006944444444
 30
0.0
 42
-0.0513106011809557
  0
VERTEX
  5
CC
  8
SignTorch_HUMMINGBIRD2_
 10
7.97571203537734
 20
2.602424938256578
 30
0.0
 42
0.0171793964388066
  0
VERTEX
  5
CD
  8
SignTorch_HUMMINGBIRD2_
 10
7.738211340692308
 20
2.419944444444444
 30
0.0
 42
0.0005311996218377
  0
VERTEX
  5
CE
  8
SignTorch_HUMMINGBIRD2_
 10
7.553188798407527
 20
2.267067041222895
 30
0.0
 42
-0.1502893157091434
  0
VERTEX
  5
CF
  8
SignTorch_HUMMINGBIRD2_
 10
7.475461340692308
 20
2.234819444444444
 30
0.0
 42
0.0194321941510542
  0
VERTEX
  5
D0
  8
SignTorch_HUMMINGBIRD2_
 10
7.311293255962869
 20
2.212724765512412
 30
0.0
 42
0.026858092725269
  0
VERTEX
  5
D1
  8
SignTorch_HUMMINGBIRD2_
 10
7.194461340692307
 20
2.185819444444444
 30
0.0
 42
0.0170353890408978
  0
VERTEX
  5
D2
  8
SignTorch_HUMMINGBIRD2_
 10
7.0875216155369
 20
2.151077811667738
 30
0.0
 42
-0.5233021111369259
  0
VERTEX
  5
D3
  8
SignTorch_HUMMINGBIRD2_
 10
7.062461340692309
 20
2.168819444444444
 30
0.0
 42
-0.114026463749379
  0
VERTEX
  5
D4
  8
SignTorch_HUMMINGBIRD2_
 10
7.072106433237234
 20
2.208829527674399
 30
0.0
 42
0.0484842384791563
  0
VERTEX
  5
D5
  8
SignTorch_HUMMINGBIRD2_
 10
7.131035559442307
 20
2.362247178819445
 30
0.0
 42
0.0819297507486346
  0
VERTEX
  5
D6
  8
SignTorch_HUMMINGBIRD2_
 10
7.163566164109048
 20
2.666987623760281
 30
0.0
 42
-0.0496473885844241
  0
VERTEX
  5
D7
  8
SignTorch_HUMMINGBIRD2_
 10
7.166789465692307
 20
2.743569444444444
 30
0.0
 42
-0.1842484442836208
  0
VERTEX
  5
D8
  8
SignTorch_HUMMINGBIRD2_
 10
7.205306277170811
 20
2.813130626700956
 30
0.0
 42
0.1145632470615518
  0
VERTEX
  5
D9
  8
SignTorch_HUMMINGBIRD2_
 10
7.395392981317308
 20
3.067391710069444
 30
0.0
 42
0.2253468283045409
  0
VERTEX
  5
DA
  8
SignTorch_HUMMINGBIRD2_
 10
7.383059102434682
 20
3.486009580360655
 30
0.0
 42
0.0916093371794275
  0
VERTEX
  5
DB
  8
SignTorch_HUMMINGBIRD2_
 10
7.103586340692307
 20
3.849506944444444
 30
0.0
 42
0.0507233349075736
  0
VERTEX
  5
DC
  8
SignTorch_HUMMINGBIRD2_
 10
6.854527301181925
 20
4.031586467195252
 30
0.0
 42
0.2292482523844871
  0
VERTEX
  5
DD
  8
SignTorch_HUMMINGBIRD2_
 10
6.783086340692308
 20
4.037256944444444
 30
0.0
 42
0.1776468747886949
  0
VERTEX
  5
DE
  8
SignTorch_HUMMINGBIRD2_
 10
6.755207937486044
 20
4.012651022316604
 30
0.0
 42
0.0498311201738733
  0
VERTEX
  5
DF
  8
SignTorch_HUMMINGBIRD2_
 10
6.705461340692308
 20
3.893819444444444
 30
0.0
 42
-0.0029066705661634
  0
VERTEX
  5
E0
  8
SignTorch_HUMMINGBIRD2_
 10
6.581788194552341
 20
3.49780442919914
 30
0.0
 42
0.094720663783379
  0
VERTEX
  5
E1
  8
SignTorch_HUMMINGBIRD2_
 10
6.542152746942308
 20
3.168077256944445
 30
0.0
 42
0.1173400187337447
  0
VERTEX
  5
E2
  8
SignTorch_HUMMINGBIRD2_
 10
6.627971372652327
 20
2.893430567015773
 30
0.0
 42
0.2274397357948585
  0
VERTEX
  5
E3
  8
SignTorch_HUMMINGBIRD2_
 10
6.881242590692307
 20
2.724928819444444
 30
0.0
 42
0.1209383749379207
  0
VERTEX
  5
E4
  8
SignTorch_HUMMINGBIRD2_
 10
7.023027356962489
 20
2.739286742893246
 30
0.0
 42
-0.3641214343735348
  0
VERTEX
  5
E5
  8
SignTorch_HUMMINGBIRD2_
 10
7.057121496942307
 20
2.726579210069444
 30
0.0
 42
-0.1317429391355927
  0
VERTEX
  5
E6
  8
SignTorch_HUMMINGBIRD2_
 10
7.070899941369404
 20
2.673428741227788
 30
0.0
 42
-0.0659569821744181
  0
VERTEX
  5
E7
  8
SignTorch_HUMMINGBIRD2_
 10
7.036594153192308
 20
2.430077256944444
 30
0.0
 42
-0.0571613862161189
  0
VERTEX
  5
E8
  8
SignTorch_HUMMINGBIRD2_
 10
6.98117915588295
 20
2.29370564639252
 30
0.0
 42
-0.0862982405677621
  0
VERTEX
  5
E9
  8
SignTorch_HUMMINGBIRD2_
 10
6.790586340692307
 20
2.054288194444444
 30
0.0
 42
-0.0338590949259126
  0
VERTEX
  5
EA
  8
SignTorch_HUMMINGBIRD2_
 10
6.711229580149933
 20
1.992877524084061
 30
0.0
 42
-0.0260799272991893
  0
VERTEX
  5
EB
  8
SignTorch_HUMMINGBIRD2_
 10
6.599461340692308
 20
1.926069444444444
 30
0.0
 42
-0.0604804863022149
  0
VERTEX
  5
EC
  8
SignTorch_HUMMINGBIRD2_
 10
6.569315673172395
 20
1.914522733751993
 30
0.0
 42
-0.2920503078288743
  0
VERTEX
  5
ED
  8
SignTorch_HUMMINGBIRD2_
 10
6.562461340692308
 20
1.916819444444444
 30
0.0
 42
-0.1540690752694996
  0
VERTEX
  5
EE
  8
SignTorch_HUMMINGBIRD2_
 10
6.553671091231293
 20
1.939252831746966
 30
0.0
 42
0.0470949035729699
  0
VERTEX
  5
EF
  8
SignTorch_HUMMINGBIRD2_
 10
6.538211340692309
 20
2.033944444444444
 30
0.0
 42
0.0619163166705124
  0
VERTEX
  5
F0
  8
SignTorch_HUMMINGBIRD2_
 10
6.455509659551292
 20
2.241224438848243
 30
0.0
 42
0.0512260917352087
  0
VERTEX
  5
F1
  8
SignTorch_HUMMINGBIRD2_
 10
6.302127356317309
 20
2.462717881944444
 30
0.0
 42
0.0606681404720174
  0
VERTEX
  5
F2
  8
SignTorch_HUMMINGBIRD2_
 10
6.193898582523222
 20
2.561853877171773
 30
0.0
 42
0.0517464030679503
  0
VERTEX
  5
F3
  8
SignTorch_HUMMINGBIRD2_
 10
6.044461340692308
 20
2.646819444444444
 30
0.0
 42
0.009609758282335
  0
VERTEX
  5
F4
  8
SignTorch_HUMMINGBIRD2_
 10
5.994521399302163
 20
2.667603029413852
 30
0.0
 42
-0.3837017712867998
  0
VERTEX
  5
F5
  8
SignTorch_HUMMINGBIRD2_
 10
5.988163659716775
 20
2.680342608683917
 30
0.0
 42
-0.2559763338025385
  0
VERTEX
  5
F6
  8
SignTorch_HUMMINGBIRD2_
 10
5.989544464737639
 20
2.681763600912764
 30
0.0
 42
-0.047103523387044
  0
VERTEX
  5
F7
  8
SignTorch_HUMMINGBIRD2_
 10
5.999461340692307
 20
2.683819444444444
 30
0.0
 42
-0.0800848329748815
  0
VERTEX
  5
F8
  8
SignTorch_HUMMINGBIRD2_
 10
6.080416327880922
 20
2.679804520461055
 30
0.0
 42
0.0649285964655033
  0
VERTEX
  5
F9
  8
SignTorch_HUMMINGBIRD2_
 10
6.230461340692308
 20
2.667819444444444
 30
0.0
 42
0.0575554849931344
  0
VERTEX
  5
FA
  8
SignTorch_HUMMINGBIRD2_
 10
6.323565846179203
 20
2.683318040619807
 30
0.0
 42
0.4780531015023999
  0
VERTEX
  5
FB
  8
SignTorch_HUMMINGBIRD2_
 10
6.343961340692307
 20
2.731694444444444
 30
0.0
 42
0.0890866294807138
  0
VERTEX
  5
FC
  8
SignTorch_HUMMINGBIRD2_
 10
6.302482917526342
 20
2.7839860083974
 30
0.0
 42
0.0529252671998293
  0
VERTEX
  5
FD
  8
SignTorch_HUMMINGBIRD2_
 10
6.160338293817309
 20
2.884768663194444
 30
0.0
 42
0.1407652714728253
  0
VERTEX
  5
FE
  8
SignTorch_HUMMINGBIRD2_
 10
5.968364349270885
 20
2.929982616722973
 30
0.0
 42
-0.0886742404403262
  0
VERTEX
  5
FF
  8
SignTorch_HUMMINGBIRD2_
 10
5.919412512567308
 20
2.936307725694444
 30
0.0
 42
-0.4166200171460591
  0
VERTEX
  5
100
  8
SignTorch_HUMMINGBIRD2_
 10
5.909748283006947
 20
2.955057860073409
 30
0.0
 42
0.0110865758075572
  0
VERTEX
  5
101
  8
SignTorch_HUMMINGBIRD2_
 10
5.932586340692308
 20
3.031194444444444
 30
0.0
 42
0.1023718052423138
  0
VERTEX
  5
102
  8
SignTorch_HUMMINGBIRD2_
 10
5.944999277647065
 20
3.221258661771353
 30
0.0
 42
0.1016868384671274
  0
VERTEX
  5
103
  8
SignTorch_HUMMINGBIRD2_
 10
5.880791418817308
 20
3.401913194444444
 30
0.0
 42
0.1354445936734659
  0
VERTEX
  5
104
  8
SignTorch_HUMMINGBIRD2_
 10
5.812059810631964
 20
3.466896744220193
 30
0.0
 42
0.3402427211592315
  0
VERTEX
  5
105
  8
SignTorch_HUMMINGBIRD2_
 10
5.771383215692308
 20
3.460006944444444
 30
0.0
 42
0.1191870379993432
  0
VERTEX
  5
106
  8
SignTorch_HUMMINGBIRD2_
 10
5.734171626219568
 20
3.393456800264543
 30
0.0
 42
-0.1468542940657172
  0
VERTEX
  5
107
  8
SignTorch_HUMMINGBIRD2_
 10
5.658461340692307
 20
3.273819444444444
 30
0.0
 42
-0.201507539360982
  0
VERTEX
  5
108
  8
SignTorch_HUMMINGBIRD2_
 10
5.634303843682984
 20
3.265886986987216
 30
0.0
 42
-0.2441975187794849
  0
VERTEX
  5
109
  8
SignTorch_HUMMINGBIRD2_
 10
5.616195715692307
 20
3.277225694444445
 30
0.0
 42
-0.0713322155070302
  0
VERTEX
  5
10A
  8
SignTorch_HUMMINGBIRD2_
 10
5.58438689798818
 20
3.354627766377829
 30
0.0
 42
0.1854101249029768
  0
VERTEX
  5
10B
  8
SignTorch_HUMMINGBIRD2_
 10
5.392461340692308
 20
3.626819444444445
 30
0.0
 42
0.0848107712435931
  0
VERTEX
  5
10C
  8
SignTorch_HUMMINGBIRD2_
 10
5.141590677811285
 20
3.739084581839502
 30
0.0
 42
0.0478775666153503
  0
VERTEX
  5
10D
  8
SignTorch_HUMMINGBIRD2_
 10
4.998711340692308
 20
3.761538194444444
 30
0.0
 42
0.0967262539001251
  0
VERTEX
  5
10E
  8
SignTorch_HUMMINGBIRD2_
 10
4.857184425943885
 20
3.742652515957853
 30
0.0
 42
0.3019442451909197
  0
VERTEX
  5
10F
  8
SignTorch_HUMMINGBIRD2_
 10
4.826914465692307
 20
3.703553819444444
 30
0.0
 42
0.2421751862426309
  0
VERTEX
  5
110
  8
SignTorch_HUMMINGBIRD2_
 10
4.852623043673502
 20
3.643231321003912
 30
0.0
 42
-0.0512683504610121
  0
VERTEX
  5
111
  8
SignTorch_HUMMINGBIRD2_
 10
5.033726965692308
 20
3.458553819444445
 30
0.0
 42
-0.0501454296286103
  0
VERTEX
  5
112
  8
SignTorch_HUMMINGBIRD2_
 10
5.137778166099747
 20
3.297277535332857
 30
0.0
 42
-0.041452044055657
  0
VERTEX
  5
113
  8
SignTorch_HUMMINGBIRD2_
 10
5.225961340692308
 20
3.082694444444444
 30
0.0
 42
-0.1054933623441827
  0
VERTEX
  5
114
  8
SignTorch_HUMMINGBIRD2_
 10
5.231254367700817
 20
3.028211007165388
 30
0.0
 42
-0.3820751992475064
  0
VERTEX
  5
115
  8
SignTorch_HUMMINGBIRD2_
 10
5.218461340692309
 20
3.016819444444444
 30
0.0
 42
-0.1183993792417086
  0
VERTEX
  5
116
  8
SignTorch_HUMMINGBIRD2_
 10
5.1828355412264
 20
3.02546616809153
 30
0.0
 42
0.0619799992319002
  0
VERTEX
  5
117
  8
SignTorch_HUMMINGBIRD2_
 10
5.045258215692308
 20
3.075686631944444
 30
0.0
 42
0.0789090089441845
  0
VERTEX
  5
118
  8
SignTorch_HUMMINGBIRD2_
 10
4.750386093225513
 20
3.095979817024308
 30
0.0
 42
0.0602129011091624
  0
VERTEX
  5
119
  8
SignTorch_HUMMINGBIRD2_
 10
4.372455481317308
 20
3.015797960069444
 30
0.0
 42
0.0011855788592535
  0
VERTEX
  5
11A
  8
SignTorch_HUMMINGBIRD2_
 10
4.172183682668658
 20
2.946816562013135
 30
0.0
 42
-0.2264940053311194
  0
VERTEX
  5
11B
  8
SignTorch_HUMMINGBIRD2_
 10
4.118508948114182
 20
2.952820176866319
 30
0.0
 42
-0.2221623608058427
  0
VERTEX
  5
11C
  8
SignTorch_HUMMINGBIRD2_
 10
4.097194493332903
 20
2.985587510229455
 30
0.0
 42
-0.0637234348094816
  0
VERTEX
  5
11D
  8
SignTorch_HUMMINGBIRD2_
 10
4.095601965692308
 20
3.115975694444444
 30
0.0
 42
-0.0366620448622803
  0
VERTEX
  5
11E
  8
SignTorch_HUMMINGBIRD2_
 10
4.190653000808059
 20
3.614637120467578
 30
0.0
 42
-0.1008524455024744
  0
VERTEX
  5
11F
  8
SignTorch_HUMMINGBIRD2_
 10
4.382586340692308
 20
3.999444444444444
 30
0.0
 42
-0.0248740669492966
  0
VERTEX
  5
120
  8
SignTorch_HUMMINGBIRD2_
 10
4.463158317033376
 20
4.092535859887325
 30
0.0
 42
0.6260901890162565
  0
VERTEX
  5
121
  8
SignTorch_HUMMINGBIRD2_
 10
4.451107825067308
 20
4.124983506944444
 30
0.0
 42
0.1712345112259139
  0
VERTEX
  5
122
  8
SignTorch_HUMMINGBIRD2_
 10
4.377183650628318
 20
4.106677851366736
 30
0.0
 42
0.0793613326379208
  0
VERTEX
  5
123
  8
SignTorch_HUMMINGBIRD2_
 10
4.258586340692307
 20
3.998319444444444
 30
0.0
 42
0.018101500989101
  0
VERTEX
  5
124
  8
SignTorch_HUMMINGBIRD2_
 10
4.210174434860117
 20
3.932736467869369
 30
0.0
 42
-0.6172505821440959
  0
VERTEX
  5
125
  8
SignTorch_HUMMINGBIRD2_
 10
4.187461340692308
 20
3.935819444444444
 30
0.0
 42
-0.0835050683986756
  0
VERTEX
  5
126
  8
SignTorch_HUMMINGBIRD2_
 10
4.179289930074679
 20
3.985429482521058
 30
0.0
 42
0.0263659482653774
  0
VERTEX
  5
127
  8
SignTorch_HUMMINGBIRD2_
 10
4.169383215692308
 20
4.186038194444444
 30
0.0
 42
0.0204655900380799
  0
VERTEX
  5
128
  8
SignTorch_HUMMINGBIRD2_
 10
4.144325793902392
 20
4.360083277433257
 30
0.0
 42
0.0181832956993783
  0
VERTEX
  5
129
  8
SignTorch_HUMMINGBIRD2_
 10
4.101086340692308
 20
4.553194444444443
 30
0.0
 42
-0.0295632006630045
  0
VERTEX
  5
12A
  8
SignTorch_HUMMINGBIRD2_
 10
4.091375287785972
 20
4.601715841419579
 30
0.0
 42
-0.1680787345572448
  0
VERTEX
  5
12B
  8
SignTorch_HUMMINGBIRD2_
 10
4.097088293817308
 20
4.630698350694444
 30
0.0
 42
-0.0521205773785136
  0
VERTEX
  5
12C
  8
SignTorch_HUMMINGBIRD2_
 10
4.120470625738723
 20
4.662645840925216
 30
0.0
 42
-0.0166764599020619
  0
VERTEX
  5
12D
  8
SignTorch_HUMMINGBIRD2_
 10
4.206336340692308
 20
4.751319444444444
 30
0.0
 42
-0.0226760441425848
  0
VERTEX
  5
12E
  8
SignTorch_HUMMINGBIRD2_
 10
4.364273037136948
 20
4.890622189052243
 30
0.0
 42
-0.2725187511930254
  0
VERTEX
  5
12F
  8
SignTorch_HUMMINGBIRD2_
 10
4.463836340692309
 20
4.905194444444444
 30
0.0
 42
0.0276598884823934
  0
VERTEX
  5
130
  8
SignTorch_HUMMINGBIRD2_
 10
4.529765204132615
 20
4.882503061976185
 30
0.0
 42
0.3365150467552872
  0
VERTEX
  5
131
  8
SignTorch_HUMMINGBIRD2_
 10
4.595648840692308
 20
4.908288194444444
 30
0.0
 42
0.1097321532525238
  0
VERTEX
  5
132
  8
SignTorch_HUMMINGBIRD2_
 10
4.605236829849323
 20
4.936286147972712
 30
0.0
 42
-0.3466758292570217
  0
VERTEX
  5
133
  8
SignTorch_HUMMINGBIRD2_
 10
4.626023840692308
 20
4.957350694444444
 30
0.0
 42
-0.2007841004970012
  0
VERTEX
  5
134
  8
SignTorch_HUMMINGBIRD2_
 10
4.66136279556475
 20
4.947506023915085
 30
0.0
 42
0.1453751921459816
  0
VERTEX
  5
135
  8
SignTorch_HUMMINGBIRD2_
 10
4.797516028192308
 20
4.893241319444444
 30
0.0
 42
0.0595579367870155
  0
VERTEX
  5
136
  8
SignTorch_HUMMINGBIRD2_
 10
4.860615528511631
 20
4.895036481593845
 30
0.0
 42
0.516657672392502
  0
VERTEX
  5
137
  8
SignTorch_HUMMINGBIRD2_
 10
4.891461340692308
 20
4.955819444444445
 30
0.0
 42
-0.1374521940149433
  0
VERTEX
  5
138
  8
SignTorch_HUMMINGBIRD2_
 10
4.885152547240518
 20
4.985278555417919
 30
0.0
 42
-0.3247996208059465
  0
VERTEX
  5
139
  8
SignTorch_HUMMINGBIRD2_
 10
4.893961340692307
 20
4.995944444444444
 30
0.0
 42
-0.045932471723727
  0
VERTEX
  5
13A
  8
SignTorch_HUMMINGBIRD2_
 10
4.924265688431128
 20
5.000852620091286
 30
0.0
 42
0.0323702122211321
  0
VERTEX
  5
13B
  8
SignTorch_HUMMINGBIRD2_
 10
5.045961340692308
 20
5.017194444444444
 30
0.0
 42
-0.104443307004445
  0
VERTEX
  5
13C
  8
SignTorch_HUMMINGBIRD2_
 10
5.069206191282321
 20
5.016963654140756
 30
0.0
 42
-0.3777461726280598
  0
VERTEX
  5
13D
  8
SignTorch_HUMMINGBIRD2_
 10
5.073488684442308
 20
5.011094835069444
 30
0.0
 42
-0.1528552423818826
  0
VERTEX
  5
13E
  8
SignTorch_HUMMINGBIRD2_
 10
5.06434689432051
 20
4.989187845551181
 30
0.0
 42
-0.0002039975182328
  0
VERTEX
  5
13F
  8
SignTorch_HUMMINGBIRD2_
 10
5.003805090692308
 20
4.917178819444445
 30
0.0
 42
-0.0145598415005903
  0
VERTEX
  5
140
  8
SignTorch_HUMMINGBIRD2_
 10
4.851182191282625
 20
4.746162714808647
 30
0.0
 42
0.0534461967964809
  0
VERTEX
  5
141
  8
SignTorch_HUMMINGBIRD2_
 10
4.712289465692308
 20
4.563819444444444
 30
0.0
 42
0.0686330380616863
  0
VERTEX
  5
142
  8
SignTorch_HUMMINGBIRD2_
 10
4.633382494011022
 20
4.380826191327264
 30
0.0
 42
0.3184862071686637
  0
VERTEX
  5
143
  8
SignTorch_HUMMINGBIRD2_
 10
4.649375159051683
 20
4.336546983506945
 30
0.0
 42
0.2574821447040708
  0
VERTEX
  5
144
  8
SignTorch_HUMMINGBIRD2_
 10
4.677876119788114
 20
4.333585869949788
 30
0.0
 42
0.0512580183794675
  0
VERTEX
  5
145
  8
SignTorch_HUMMINGBIRD2_
 10
4.796461340692308
 20
4.398819444444444
 30
0.0
 42
-0.0022665772682385
  0
VERTEX
  5
146
  8
SignTorch_HUMMINGBIRD2_
 10
5.153385211654668
 20
4.643430028187786
 30
0.0
 42
-0.0093816926529262
  0
VERTEX
  5
147
  8
SignTorch_HUMMINGBIRD2_
 10
5.240976965692308
 20
4.700506944444445
 30
0.0
 42
0.0158125301654362
  0
VERTEX
  5
148
  8
SignTorch_HUMMINGBIRD2_
 10
5.430140704074548
 20
4.827265585100656
 30
0.0
 42
0.0231117579164797
  0
VERTEX
  5
149
  8
SignTorch_HUMMINGBIRD2_
 10
5.552461340692308
 20
4.923819444444444
 30
0.0
 42
0.0019050169367575
  0
VERTEX
  5
14A
  8
SignTorch_HUMMINGBIRD2_
 10
5.592940952180606
 20
4.959196876786606
 30
0.0
 42
-0.7420337008866187
  0
VERTEX
  5
14B
  8
SignTorch_HUMMINGBIRD2_
 10
5.606461340692308
 20
4.950819444444444
 30
0.0
 42
-0.0790246669306253
  0
VERTEX
  5
14C
  8
SignTorch_HUMMINGBIRD2_
 10
5.587216480911271
 20
4.907540040720789
 30
0.0
 42
0.0285725150809063
  0
VERTEX
  5
14D
  8
SignTorch_HUMMINGBIRD2_
 10
5.493336340692308
 20
4.743194444444445
 30
0.0
 42
0.0427589987587319
  0
VERTEX
  5
14E
  8
SignTorch_HUMMINGBIRD2_
 10
5.404218390974664
 20
4.517722576217247
 30
0.0
 42
0.0355214267378077
  0
VERTEX
  5
14F
  8
SignTorch_HUMMINGBIRD2_
 10
5.340586340692308
 20
4.233069444444444
 30
0.0
 42
0.1546221847333121
  0
VERTEX
  5
150
  8
SignTorch_HUMMINGBIRD2_
 10
5.350324713369752
 20
4.171908945384148
 30
0.0
 42
0.3780057595614235
  0
VERTEX
  5
151
  8
SignTorch_HUMMINGBIRD2_
 10
5.403945715692308
 20
4.150288194444444
 30
0.0
 42
0.1458460496896288
  0
VERTEX
  5
152
  8
SignTorch_HUMMINGBIRD2_
 10
5.462024799483523
 20
4.192561807309966
 30
0.0
 42
-0.0148169664311763
  0
VERTEX
  5
153
  8
SignTorch_HUMMINGBIRD2_
 10
5.641836340692309
 20
4.414194444444444
 30
0.0
 42
-0.0078652896016362
  0
VERTEX
  5
154
  8
SignTorch_HUMMINGBIRD2_
 10
5.83872987668669
 20
4.635558910937655
 30
0.0
 42
0.138435464035964
  0
VERTEX
  5
155
  8
SignTorch_HUMMINGBIRD2_
 10
5.939164465692308
 20
4.834475694444444
 30
0.0
 42
0.0508228924844078
  0
VERTEX
  5
156
  8
SignTorch_HUMMINGBIRD2_
 10
5.945269132240417
 20
4.901459605198513
 30
0.0
 42
-0.1822712382600988
  0
VERTEX
  5
157
  8
SignTorch_HUMMINGBIRD2_
 10
5.957726856244106
 20
4.935597136015137
 30
0.0
 42
-0.598939381068007
  0
VERTEX
  5
158
  8
SignTorch_HUMMINGBIRD2_
 10
5.966978534710065
 20
4.933538215143348
 30
0.0
 42
0.0297388368944751
  0
VERTEX
  5
159
  8
SignTorch_HUMMINGBIRD2_
 10
5.978086340692307
 20
4.901319444444445
 30
0.0
 42
-0.022110335910443
  0
VERTEX
  5
15A
  8
SignTorch_HUMMINGBIRD2_
 10
5.995839126576135
 20
4.852266720609486
 30
0.0
 42
0.0106297523267932
  0
SEQEND
  5
15B
  8
SignTorch_HUMMINGBIRD2_
  0
POLYLINE
  5
45
  8
SignTorch_HUMMINGBIRD2_
 66
     1
 10
0.0
 20
0.0
 30
0.0
 70
     1
  0
VERTEX
  5
15C
  8
SignTorch_HUMMINGBIRD2_
 10
6.981133215692308
 20
3.435756944444444
 30
0.0
 42
-0.0468628668480439
  0
VERTEX
  5
15D
  8
SignTorch_HUMMINGBIRD2_
 10
7.060486711466732
 20
3.188736849952135
 30
0.0
 42
-0.0602914086501634
  0
VERTEX
  5
15E
  8
SignTorch_HUMMINGBIRD2_
 10
7.079992590692307
 20
2.987725694444444
 30
0.0
 42
-0.0206840930376673
  0
VERTEX
  5
15F
  8
SignTorch_HUMMINGBIRD2_
 10
7.077818105202212
 20
2.954351845711979
 30
0.0
 42
-0.7717199311927376
  0
VERTEX
  5
160
  8
SignTorch_HUMMINGBIRD2_
 10
7.062805090692308
 20
2.952085069444444
 30
0.0
 42
-0.0952706058735234
  0
VERTEX
  5
161
  8
SignTorch_HUMMINGBIRD2_
 10
7.049478963716022
 20
3.01276868001827
 30
0.0
 42
0.0643484478574659
  0
VERTEX
  5
162
  8
SignTorch_HUMMINGBIRD2_
 10
7.011195715692308
 20
3.258225694444444
 30
0.0
 42
0.0403985397982367
  0
VERTEX
  5
163
  8
SignTorch_HUMMINGBIRD2_
 10
6.928749698431243
 20
3.474636990086203
 30
0.0
 42
-0.1207305401709315
  0
VERTEX
  5
164
  8
SignTorch_HUMMINGBIRD2_
 10
6.916965246942309
 20
3.531471788194444
 30
0.0
 42
-0.5277914353155925
  0
VERTEX
  5
165
  8
SignTorch_HUMMINGBIRD2_
 10
6.928743389421635
 20
3.538916632067579
 30
0.0
 42
-0.1771243467521738
  0
VERTEX
  5
166
  8
SignTorch_HUMMINGBIRD2_
 10
6.940461340692308
 20
3.527819444444444
 30
0.0
 42
-0.0114969607761085
  0
VERTEX
  5
167
  8
SignTorch_HUMMINGBIRD2_
 10
6.949028698145995
 20
3.509573669932671
 30
0.0
 42
-0.0028786076870213
  0
SEQEND
  5
168
  8
SignTorch_HUMMINGBIRD2_
  0
POLYLINE
  5
46
  8
SignTorch_HUMMINGBIRD2_
 66
     1
 10
0.0
 20
0.0
 30
0.0
 70
     1
  0
VERTEX
  5
169
  8
SignTorch_HUMMINGBIRD2_
 10
7.678461340692309
 20
4.794819444444443
 30
0.0
 42
0.1095356872152008
  0
VERTEX
  5
16A
  8
SignTorch_HUMMINGBIRD2_
 10
7.569778731127255
 20
4.925937449585309
 30
0.0
 42
0.0135190787239137
  0
VERTEX
  5
16B
  8
SignTorch_HUMMINGBIRD2_
 10
7.443476965692308
 20
5.018694444444444
 30
0.0
 42
-0.0149829043292429
  0
VERTEX
  5
16C
  8
SignTorch_HUMMINGBIRD2_
 10
7.298514293393862
 20
5.125810732437607
 30
0.0
 42
-0.0584252803581217
  0
VERTEX
  5
16D
  8
SignTorch_HUMMINGBIRD2_
 10
7.265648840692308
 20
5.158522569444444
 30
0.0
 42
-0.0990102711840196
  0
VERTEX
  5
16E
  8
SignTorch_HUMMINGBIRD2_
 10
7.258671918967777
 20
5.172134465034256
 30
0.0
 42
-0.3320093517255309
  0
VERTEX
  5
16F
  8
SignTorch_HUMMINGBIRD2_
 10
7.260461340692308
 20
5.176819444444444
 30
0.0
 42
-0.2464326925829916
  0
VERTEX
  5
170
  8
SignTorch_HUMMINGBIRD2_
 10
7.267931816248669
 20
5.177430345567119
 30
0.0
 42
-0.0396194302138031
  0
VERTEX
  5
171
  8
SignTorch_HUMMINGBIRD2_
 10
7.306961340692308
 20
5.157069444444444
 30
0.0
 42
0.005838310426207
  0
VERTEX
  5
172
  8
SignTorch_HUMMINGBIRD2_
 10
7.544863181665254
 20
5.011746433017014
 30
0.0
 42
-0.1272181864901445
  0
VERTEX
  5
173
  8
SignTorch_HUMMINGBIRD2_
 10
7.696461340692307
 20
4.858819444444443
 30
0.0
 42
-0.047463295988558
  0
VERTEX
  5
174
  8
SignTorch_HUMMINGBIRD2_
 10
7.788300605551758
 20
4.660197023242985
 30
0.0
 42
-0.047132971001846
  0
VERTEX
  5
175
  8
SignTorch_HUMMINGBIRD2_
 10
7.807928137567308
 20
4.581376085069444
 30
0.0
 42
-0.0964541133082717
  0
VERTEX
  5
176
  8
SignTorch_HUMMINGBIRD2_
 10
7.806539087259375
 20
4.548680583454827
 30
0.0
 42
-0.5057432391223984
  0
VERTEX
  5
177
  8
SignTorch_HUMMINGBIRD2_
 10
7.799385403192308
 20
4.545659756944444
 30
0.0
 42
-0.1676673751366264
  0
VERTEX
  5
178
  8
SignTorch_HUMMINGBIRD2_
 10
7.77623803013921
 20
4.573049465109601
 30
0.0
 42
0.0168799166981083
  0
VERTEX
  5
179
  8
SignTorch_HUMMINGBIRD2_
 10
7.720461340692308
 20
4.703819444444444
 30
0.0
 42
-0.006879335971251
  0
VERTEX
  5
17A
  8
SignTorch_HUMMINGBIRD2_
 10
7.699882128536737
 20
4.749513654218796
 30
0.0
 42
0.0161284465669249
  0
SEQEND
  5
17B
  8
SignTorch_HUMMINGBIRD2_
  0
POLYLINE
  5
47
  8
SignTorch_HUMMINGBIRD2_
 66
     1
 10
0.0
 20
0.0
 30
0.0
 70
     1
  0
VERTEX
  5
17C
  8
SignTorch_HUMMINGBIRD2_
 10
8.318461340692307
 20
3.632819444444444
 30
0.0
 42
0.0300639196183268
  0
VERTEX
  5
17D
  8
SignTorch_HUMMINGBIRD2_
 10
8.218386487930612
 20
3.436478055056008
 30
0.0
 42
-0.0114761982279147
  0
VERTEX
  5
17E
  8
SignTorch_HUMMINGBIRD2_
 10
8.168461340692307
 20
3.328819444444444
 30
0.0
 42
-0.0828398123228079
  0
VERTEX
  5
17F
  8
SignTorch_HUMMINGBIRD2_
 10
8.147416856083073
 20
3.299495135516302
 30
0.0
 42
-0.3988568038020012
  0
VERTEX
  5
180
  8
SignTorch_HUMMINGBIRD2_
 10
8.138789465692307
 20
3.299288194444444
 30
0.0
 42
-0.2556784215766356
  0
VERTEX
  5
181
  8
SignTorch_HUMMINGBIRD2_
 10
8.134602734583256
 20
3.311310758475278
 30
0.0
 42
-0.0432685944721891
  0
VERTEX
  5
182
  8
SignTorch_HUMMINGBIRD2_
 10
8.152242590692309
 20
3.379819444444444
 30
0.0
 42
-0.0486914376514847
  0
VERTEX
  5
183
  8
SignTorch_HUMMINGBIRD2_
 10
8.24661553173535
 20
3.582485130696578
 30
0.0
 42
-0.0525424961644984
  0
VERTEX
  5
184
  8
SignTorch_HUMMINGBIRD2_
 10
8.370070715692307
 20
3.748960069444445
 30
0.0
 42
-0.0152416228648651
  0
VERTEX
  5
185
  8
SignTorch_HUMMINGBIRD2_
 10
8.421571327932455
 20
3.801694425439602
 30
0.0
 42
-0.3627396873473139
  0
VERTEX
  5
186
  8
SignTorch_HUMMINGBIRD2_
 10
8.440961340692308
 20
3.803069444444445
 30
0.0
 42
-0.3876739670027018
  0
VERTEX
  5
187
  8
SignTorch_HUMMINGBIRD2_
 10
8.442837873947349
 20
3.79408761577267
 30
0.0
 42
-0.0539941444313376
  0
VERTEX
  5
188
  8
SignTorch_HUMMINGBIRD2_
 10
8.408461340692307
 20
3.748069444444444
 30
0.0
 42
0.0216240615019307
  0
VERTEX
  5
189
  8
SignTorch_HUMMINGBIRD2_
 10
8.351140021145177
 20
3.680869871978173
 30
0.0
 42
0.0328885294632383
  0
SEQEND
  5
18A
  8
SignTorch_HUMMINGBIRD2_
  0
POLYLINE
  5
48
  8
SignTorch_HUMMINGBIRD2_
 66
     1
 10
0.0
 20
0.0
 30
0.0
 70
     1
  0
VERTEX
  5
18B
  8
SignTorch_HUMMINGBIRD2_
 10
8.719461340692309
 20
3.964819444444444
 30
0.0
 42
0.0211066349681045
  0
VERTEX
  5
18C
  8
SignTorch_HUMMINGBIRD2_
 10
8.726714694394714
 20
4.011023607924603
 30
0.0
 42
-0.1048960702967597
  0
VERTEX
  5
18D
  8
SignTorch_HUMMINGBIRD2_
 10
8.741539465692309
 20
4.055381944444444
 30
0.0
 42
-0.5484209365700369
  0
VERTEX
  5
18E
  8
SignTorch_HUMMINGBIRD2_
 10
8.753027880314685
 20
4.055795404177097
 30
0.0
 42
-0.1092261393049822
  0
VERTEX
  5
18F
  8
SignTorch_HUMMINGBIRD2_
 10
8.76993009069231
 20
4.014194444444444
 30
0.0
 42
0.0108930494405987
  0
VERTEX
  5
190
  8
SignTorch_HUMMINGBIRD2_
 10
8.793950178919067
 20
3.889375784380174
 30
0.0
 42
0.3700824710054274
  0
VERTEX
  5
191
  8
SignTorch_HUMMINGBIRD2_
 10
8.835461340692309
 20
3.857819444444444
 30
0.0
 42
0.1005694378138327
  0
VERTEX
  5
192
  8
SignTorch_HUMMINGBIRD2_
 10
8.878195186907414
 20
3.869159172675598
 30
0.0
 42
-0.4845255780222074
  0
VERTEX
  5
193
  8
SignTorch_HUMMINGBIRD2_
 10
8.918148840692307
 20
3.850225694444444
 30
0.0
 42
-0.1792792930482059
  0
VERTEX
  5
194
  8
SignTorch_HUMMINGBIRD2_
 10
8.910622887736453
 20
3.792170479007523
 30
0.0
 42
0.092332115228441
  0
VERTEX
  5
195
  8
SignTorch_HUMMINGBIRD2_
 10
8.878586340692307
 20
3.688444444444444
 30
0.0
 42
0.2054553025231272
  0
VERTEX
  5
196
  8
SignTorch_HUMMINGBIRD2_
 10
8.898892085624677
 20
3.620361416211559
 30
0.0
 42
-0.1777557971720493
  0
VERTEX
  5
197
  8
SignTorch_HUMMINGBIRD2_
 10
8.922805090692307
 20
3.553460069444444
 30
0.0
 42
-0.058426272448039
  0
VERTEX
  5
198
  8
SignTorch_HUMMINGBIRD2_
 10
8.90790655599928
 20
3.435153222101623
 30
0.0
 42
0.563320086773316
  0
VERTEX
  5
199
  8
SignTorch_HUMMINGBIRD2_
 10
8.963951086786057
 20
3.378955430772569
 30
0.0
 42
0.1437012432568315
  0
VERTEX
  5
19A
  8
SignTorch_HUMMINGBIRD2_
 10
9.026757745113157
 20
3.41530991893932
 30
0.0
 42
0.0647653727314666
  0
VERTEX
  5
19B
  8
SignTorch_HUMMINGBIRD2_
 10
9.234976965692308
 20
3.700116319444444
 30
0.0
 42
0.0266214437946503
  0
VERTEX
  5
19C
  8
SignTorch_HUMMINGBIRD2_
 10
9.380797306872807
 20
4.002985606947125
 30
0.0
 42
0.057119807042105
  0
VERTEX
  5
19D
  8
SignTorch_HUMMINGBIRD2_
 10
9.424408606317307
 20
4.153874131944444
 30
0.0
 42
0.0386239948097072
  0
VERTEX
  5
19E
  8
SignTorch_HUMMINGBIRD2_
 10
9.482384570067738
 20
4.796044802959047
 30
0.0
 42
-0.0170515180186039
  0
VERTEX
  5
19F
  8
SignTorch_HUMMINGBIRD2_
 10
9.489947668817306
 20
4.957092881944443
 30
0.0
 42
-0.0801817903996832
  0
VERTEX
  5
1A0
  8
SignTorch_HUMMINGBIRD2_
 10
9.529189195735812
 20
5.116722897740039
 30
0.0
 42
0.1031901726122131
  0
VERTEX
  5
1A1
  8
SignTorch_HUMMINGBIRD2_
 10
9.588461340692309
 20
5.416163194444444
 30
0.0
 42
0.0379757531799893
  0
VERTEX
  5
1A2
  8
SignTorch_HUMMINGBIRD2_
 10
9.569088856422237
 20
5.640474570586573
 30
0.0
 42
-0.0704550929484343
  0
VERTEX
  5
1A3
  8
SignTorch_HUMMINGBIRD2_
 10
9.564273840692309
 20
5.865569444444444
 30
0.0
 42
-0.1349920182661243
  0
VERTEX
  5
1A4
  8
SignTorch_HUMMINGBIRD2_
 10
9.576904680241405
 20
5.896503691900901
 30
0.0
 42
-0.2621593403202443
  0
VERTEX
  5
1A5
  8
SignTorch_HUMMINGBIRD2_
 10
9.593523840692308
 20
5.903569444444444
 30
0.0
 42
-0.083817293854504
  0
VERTEX
  5
1A6
  8
SignTorch_HUMMINGBIRD2_
 10
9.62094359710322
 20
5.895743543994694
 30
0.0
 42
0.2031188184877487
  0
VERTEX
  5
1A7
  8
SignTorch_HUMMINGBIRD2_
 10
9.649430090692308
 20
5.894475694444444
 30
0.0
 42
-0.0047214948534207
  0
VERTEX
  5
1A8
  8
SignTorch_HUMMINGBIRD2_
 10
9.690780288463879
 20
5.909422938962352
 30
0.0
 42
-0.1647263677011957
  0
VERTEX
  5
1A9
  8
SignTorch_HUMMINGBIRD2_
 10
9.708160559442307
 20
5.909612413194444
 30
0.0
 42
-0.0405167065670708
  0
VERTEX
  5
1AA
  8
SignTorch_HUMMINGBIRD2_
 10
9.743561485831336
 20
5.894786470976915
 30
0.0
 42
0.0835754353606156
  0
VERTEX
  5
1AB
  8
SignTorch_HUMMINGBIRD2_
 10
9.889617590692307
 20
5.847866319444444
 30
0.0
 42
0.0492908844622193
  0
VERTEX
  5
1AC
  8
SignTorch_HUMMINGBIRD2_
 10
10.04939752918311
 20
5.840580304044963
 30
0.0
 42
0.0341455776219743
  0
VERTEX
  5
1AD
  8
SignTorch_HUMMINGBIRD2_
 10
10.27830509069231
 20
5.868460069444444
 30
0.0
 42
0.0235299421410234
  0
VERTEX
  5
1AE
  8
SignTorch_HUMMINGBIRD2_
 10
10.41583455818122
 20
5.901608085840509
 30
0.0
 42
0.028884132320574
  0
VERTEX
  5
1AF
  8
SignTorch_HUMMINGBIRD2_
 10
10.52446134069231
 20
5.940194444444444
 30
0.0
 42
0.0329714207212912
  0
VERTEX
  5
1B0
  8
SignTorch_HUMMINGBIRD2_
 10
10.57694928721808
 20
5.966526442516709
 30
0.0
 42
-0.3721274780756405
  0
VERTEX
  5
1B1
  8
SignTorch_HUMMINGBIRD2_
 10
10.60871134069231
 20
5.960694444444444
 30
0.0
 42
-0.0798581490563496
  0
VERTEX
  5
1B2
  8
SignTorch_HUMMINGBIRD2_
 10
10.63282437531684
 20
5.918317755764478
 30
0.0
 42
-0.0195013306054438
  0
VERTEX
  5
1B3
  8
SignTorch_HUMMINGBIRD2_
 10
10.76130118444231
 20
5.529258897569444
 30
0.0
 42
-0.0924311352904637
  0
VERTEX
  5
1B4
  8
SignTorch_HUMMINGBIRD2_
 10
10.90254483903887
 20
4.056533721337638
 30
0.0
 42
-0.0923654913658733
  0
VERTEX
  5
1B5
  8
SignTorch_HUMMINGBIRD2_
 10
10.50346134069231
 20
2.630819444444444
 30
0.0
 42
-0.0042210584739106
  0
VERTEX
  5
1B6
  8
SignTorch_HUMMINGBIRD2_
 10
10.44486414713973
 20
2.51419000546602
 30
0.0
 42
-0.1728804488789444
  0
VERTEX
  5
1B7
  8
SignTorch_HUMMINGBIRD2_
 10
10.42079141881731
 20
2.491565538194444
 30
0.0
 42
-0.3609439587086765
  0
VERTEX
  5
1B8
  8
SignTorch_HUMMINGBIRD2_
 10
10.40228187353946
 20
2.496903361369597
 30
0.0
 42
0.0191507555289804
  0
VERTEX
  5
1B9
  8
SignTorch_HUMMINGBIRD2_
 10
10.35847696569231
 20
2.556288194444444
 30
0.0
 42
0.1142606614996396
  0
VERTEX
  5
1BA
  8
SignTorch_HUMMINGBIRD2_
 10
10.11852254612491
 20
2.746165969389384
 30
0.0
 42
0.1441323838570268
  0
VERTEX
  5
1BB
  8
SignTorch_HUMMINGBIRD2_
 10
9.690133215692308
 20
2.813362413194444
 30
0.0
 42
0.0474393304066733
  0
VERTEX
  5
1BC
  8
SignTorch_HUMMINGBIRD2_
 10
9.569118528593759
 20
2.785600151212453
 30
0.0
 42
0.073980982712695
  0
VERTEX
  5
1BD
  8
SignTorch_HUMMINGBIRD2_
 10
9.497836340692308
 20
2.749569444444444
 30
0.0
 42
-0.0304037634347236
  0
VERTEX
  5
1BE
  8
SignTorch_HUMMINGBIRD2_
 10
9.464836874522364
 20
2.729113473561533
 30
0.0
 42
-0.1616076622408318
  0
VERTEX
  5
1BF
  8
SignTorch_HUMMINGBIRD2_
 10
9.457461340692307
 20
2.727819444444444
 30
0.0
 42
-0.0752009693757716
  0
VERTEX
  5
1C0
  8
SignTorch_HUMMINGBIRD2_
 10
9.401932648804555
 20
2.744807019480308
 30
0.0
 42
0.0705262027044081
  0
VERTEX
  5
1C1
  8
SignTorch_HUMMINGBIRD2_
 10
9.180461340692307
 20
2.814819444444444
 30
0.0
 42
-0.0767453132058218
  0
VERTEX
  5
1C2
  8
SignTorch_HUMMINGBIRD2_
 10
9.131220629036422
 20
2.831058324979527
 30
0.0
 42
-0.4499824653405998
  0
VERTEX
  5
1C3
  8
SignTorch_HUMMINGBIRD2_
 10
9.128570715692307
 20
2.841292100694444
 30
0.0
 42
-0.1715024489006388
  0
VERTEX
  5
1C4
  8
SignTorch_HUMMINGBIRD2_
 10
9.148437965208863
 20
2.856046825078269
 30
0.0
 42
0.0101918667521257
  0
VERTEX
  5
1C5
  8
SignTorch_HUMMINGBIRD2_
 10
9.241461340692307
 20
2.886819444444444
 30
0.0
 42
0.0076076266305392
  0
VERTEX
  5
1C6
  8
SignTorch_HUMMINGBIRD2_
 10
9.266330082782606
 20
2.896040438079315
 30
0.0
 42
0.7419223752382231
  0
VERTEX
  5
1C7
  8
SignTorch_HUMMINGBIRD2_
 10
9.264523840692307
 20
2.919725694444444
 30
0.0
 42
0.1250884412282041
  0
VERTEX
  5
1C8
  8
SignTorch_HUMMINGBIRD2_
 10
9.168050062771345
 20
2.91675110288107
 30
0.0
 42
0.0224665362422065
  0
VERTEX
  5
1C9
  8
SignTorch_HUMMINGBIRD2_
 10
9.015416418817308
 20
2.865383897569444
 30
0.0
 42
-0.1151491436650475
  0
VERTEX
  5
1CA
  8
SignTorch_HUMMINGBIRD2_
 10
8.932886565997272
 20
2.853730896789171
 30
0.0
 42
0.0639847392391013
  0
VERTEX
  5
1CB
  8
SignTorch_HUMMINGBIRD2_
 10
8.600086340692307
 20
2.840819444444444
 30
0.0
 42
0.0214069059586041
  0
VERTEX
  5
1CC
  8
SignTorch_HUMMINGBIRD2_
 10
8.388896579366612
 20
2.795942920884245
 30
0.0
 42
0.0323053876903181
  0
VERTEX
  5
1CD
  8
SignTorch_HUMMINGBIRD2_
 10
8.252867590692308
 20
2.751350694444445
 30
0.0
 42
-0.0317632289729236
  0
VERTEX
  5
1CE
  8
SignTorch_HUMMINGBIRD2_
 10
8.201158785535926
 20
2.73433776433282
 30
0.0
 42
-0.4483062325702594
  0
VERTEX
  5
1CF
  8
SignTorch_HUMMINGBIRD2_
 10
8.179461340692308
 20
2.748819444444444
 30
0.0
 42
-0.0782480204418169
  0
VERTEX
  5
1D0
  8
SignTorch_HUMMINGBIRD2_
 10
8.180615216647345
 20
2.817470397642227
 30
0.0
 42
0.0537898781745318
  0
VERTEX
  5
1D1
  8
SignTorch_HUMMINGBIRD2_
 10
8.188961340692307
 20
2.944694444444445
 30
0.0
 42
0.0121009221178796
  0
VERTEX
  5
1D2
  8
SignTorch_HUMMINGBIRD2_
 10
8.18095101742527
 20
3.065576396712763
 30
0.0
 42
-0.2918089533740647
  0
VERTEX
  5
1D3
  8
SignTorch_HUMMINGBIRD2_
 10
8.195289465692309
 20
3.093288194444444
 30
0.0
 42
-0.1274597245329197
  0
VERTEX
  5
1D4
  8
SignTorch_HUMMINGBIRD2_
 10
8.248167843059148
 20
3.108031660549303
 30
0.0
 42
0.1962726473656329
  0
VERTEX
  5
1D5
  8
SignTorch_HUMMINGBIRD2_
 10
8.449538244989185
 20
3.194592393663194
 30
0.0
 42
0.1332943677375573
  0
VERTEX
  5
1D6
  8
SignTorch_HUMMINGBIRD2_
 10
8.612583268097417
 20
3.484596854083623
 30
0.0
 42
0.0113479858398398
  0
VERTEX
  5
1D7
  8
SignTorch_HUMMINGBIRD2_
 10
8.685461340692308
 20
3.803819444444444
 30
0.0
 42
-0.0036621635390192
  0
VERTEX
  5
1D8
  8
SignTorch_HUMMINGBIRD2_
 10
8.702538537750353
 20
3.884303141960137
 30
0.0
 42
0.0046211494331927
  0
SEQEND
  5
1D9
  8
SignTorch_HUMMINGBIRD2_
  0
POLYLINE
  5
49
  8
SignTorch_HUMMINGBIRD2_
 66
     1
 10
0.0
 20
0.0
 30
0.0
 70
     1
  0
VERTEX
  5
1DA
  8
SignTorch_HUMMINGBIRD2_
 10
9.187711340692308
 20
4.540194444444444
 30
0.0
 42
-0.0047068934517613
  0
VERTEX
  5
1DB
  8
SignTorch_HUMMINGBIRD2_
 10
9.236183164333053
 20
4.841157264423665
 30
0.0
 42
-0.1694200179609743
  0
VERTEX
  5
1DC
  8
SignTorch_HUMMINGBIRD2_
 10
9.294310950067308
 20
4.946368272569444
 30
0.0
 42
-0.1625753043027293
  0
VERTEX
  5
1DD
  8
SignTorch_HUMMINGBIRD2_
 10
9.313457481146026
 20
4.954645870210908
 30
0.0
 42
-0.2727174253295811
  0
VERTEX
  5
1DE
  8
SignTorch_HUMMINGBIRD2_
 10
9.325195715692308
 20
4.949022569444445
 30
0.0
 42
-0.1575467707318892
  0
VERTEX
  5
1DF
  8
SignTorch_HUMMINGBIRD2_
 10
9.334911897885368
 20
4.915109891088798
 30
0.0
 42
0.0003721091940657
  0
VERTEX
  5
1E0
  8
SignTorch_HUMMINGBIRD2_
 10
9.330336340692307
 20
4.775444444444444
 30
0.0
 42
-0.0469075083021651
  0
VERTEX
  5
1E1
  8
SignTorch_HUMMINGBIRD2_
 10
9.243148117172579
 20
4.085763921246997
 30
0.0
 42
-0.1266065849580383
  0
VERTEX
  5
1E2
  8
SignTorch_HUMMINGBIRD2_
 10
9.124574621942307
 20
3.853126085069444
 30
0.0
 42
-0.1056964355845729
  0
VERTEX
  5
1E3
  8
SignTorch_HUMMINGBIRD2_
 10
9.087575415456417
 20
3.825754035338363
 30
0.0
 42
-0.4360460053470163
  0
VERTEX
  5
1E4
  8
SignTorch_HUMMINGBIRD2_
 10
9.075461340692307
 20
3.830819444444444
 30
0.0
 42
-0.1565191837626616
  0
VERTEX
  5
1E5
  8
SignTorch_HUMMINGBIRD2_
 10
9.074087023932096
 20
3.863638906403244
 30
0.0
 42
0.0087574818145142
  0
VERTEX
  5
1E6
  8
SignTorch_HUMMINGBIRD2_
 10
9.106461340692308
 20
3.989819444444444
 30
0.0
 42
0.0331267361741866
  0
VERTEX
  5
1E7
  8
SignTorch_HUMMINGBIRD2_
 10
9.152822662972598
 20
4.264160110585214
 30
0.0
 42
-0.012273120048021
  0
SEQEND
  5
1E8
  8
SignTorch_HUMMINGBIRD2_
  0
POLYLINE
  5
4A
  8
SignTorch_HUMMINGBIRD2_
 66
     1
 10
0.0
 20
0.0
 30
0.0
 70
     1
  0
VERTEX
  5
1E9
  8
SignTorch_HUMMINGBIRD2_
 10
9.015461340692308
 20
4.305819444444444
 30
0.0
 42
-0.0078793720921228
  0
VERTEX
  5
1EA
  8
SignTorch_HUMMINGBIRD2_
 10
8.980257641973783
 20
4.156512200037025
 30
0.0
 42
-0.0126726737223685
  0
VERTEX
  5
1EB
  8
SignTorch_HUMMINGBIRD2_
 10
8.954570715692308
 20
4.064647569444444
 30
0.0
 42
-0.02351198265138
  0
VERTEX
  5
1EC
  8
SignTorch_HUMMINGBIRD2_
 10
8.93743561335386
 20
4.016968897881304
 30
0.0
 42
-0.6228806009866633
  0
VERTEX
  5
1ED
  8
SignTorch_HUMMINGBIRD2_
 10
8.914601965692308
 20
4.015491319444444
 30
0.0
 42
-0.1181430046745017
  0
VERTEX
  5
1EE
  8
SignTorch_HUMMINGBIRD2_
 10
8.901456049004306
 20
4.060183808110592
 30
0.0
 42
0.0190535677212215
  0
VERTEX
  5
1EF
  8
SignTorch_HUMMINGBIRD2_
 10
8.884961340692307
 20
4.245069444444444
 30
0.0
 42
-0.0200339497688862
  0
VERTEX
  5
1F0
  8
SignTorch_HUMMINGBIRD2_
 10
8.877999740374753
 20
4.324867281371556
 30
0.0
 42
-0.0843586952114116
  0
VERTEX
  5
1F1
  8
SignTorch_HUMMINGBIRD2_
 10
8.890586340692307
 20
4.428069444444445
 30
0.0
 42
-0.0293017520463468
  0
VERTEX
  5
1F2
  8
SignTorch_HUMMINGBIRD2_
 10
8.956182553540163
 20
4.608742572788391
 30
0.0
 42
-0.0223610628258664
  0
VERTEX
  5
1F3
  8
SignTorch_HUMMINGBIRD2_
 10
9.066055090692307
 20
4.835288194444445
 30
0.0
 42
-0.0230546442385941
  0
VERTEX
  5
1F4
  8
SignTorch_HUMMINGBIRD2_
 10
9.098461297971722
 20
4.889058812670937
 30
0.0
 42
-0.5016721854687433
  0
VERTEX
  5
1F5
  8
SignTorch_HUMMINGBIRD2_
 10
9.115738684442308
 20
4.889963975694444
 30
0.0
 42
-0.2166697307995545
  0
VERTEX
  5
1F6
  8
SignTorch_HUMMINGBIRD2_
 10
9.123543570161244
 20
4.861365710777757
 30
0.0
 42
-0.006619732394312
  0
VERTEX
  5
1F7
  8
SignTorch_HUMMINGBIRD2_
 10
9.103461340692308
 20
4.746819444444444
 30
0.0
 42
-0.0025410613838852
  0
VERTEX
  5
1F8
  8
SignTorch_HUMMINGBIRD2_
 10
9.047762282783422
 20
4.460105969125011
 30
0.0
 42
-0.0047083785713019
  0
SEQEND
  5
1F9
  8
SignTorch_HUMMINGBIRD2_
  0
POLYLINE
  5
4B
  8
SignTorch_HUMMINGBIRD2_
 66
     1
 10
0.0
 20
0.0
 30
0.0
 70
     1
  0
VERTEX
  5
1FA
  8
SignTorch_HUMMINGBIRD2_
 10
10.83646134069231
 20
7.012819444444444
 30
0.0
 42
-0.0313630845448148
  0
VERTEX
  5
1FB
  8
SignTorch_HUMMINGBIRD2_
 10
10.98072086067471
 20
6.999660986074507
 30
0.0
 42
-0.2843366649795736
  0
VERTEX
  5
1FC
  8
SignTorch_HUMMINGBIRD2_
 10
11.03760196569231
 20
6.950995225694443
 30
0.0
 42
-0.4273670931889288
  0
VERTEX
  5
1FD
  8
SignTorch_HUMMINGBIRD2_
 10
10.99320223867549
 20
6.869474492089176
 30
0.0
 42
-0.0879859216664514
  0
VERTEX
  5
1FE
  8
SignTorch_HUMMINGBIRD2_
 10
10.91846134069231
 20
6.862819444444444
 30
0.0
 42
-0.0081285520391305
  0
VERTEX
  5
1FF
  8
SignTorch_HUMMINGBIRD2_
 10
10.79111103938801
 20
6.875979147375091
 30
0.0
 42
0.0211480676378702
  0
VERTEX
  5
200
  8
SignTorch_HUMMINGBIRD2_
 10
10.66346134069231
 20
6.885819444444444
 30
0.0
 42
0.0004361493229986
  0
VERTEX
  5
201
  8
SignTorch_HUMMINGBIRD2_
 10
10.50481349148348
 20
6.891179655317329
 30
0.0
 42
-0.4829100525978368
  0
VERTEX
  5
202
  8
SignTorch_HUMMINGBIRD2_
 10
10.47914493444231
 20
6.925790147569445
 30
0.0
 42
-0.2288003440927391
  0
VERTEX
  5
203
  8
SignTorch_HUMMINGBIRD2_
 10
10.50292000283933
 20
6.953367368354879
 30
0.0
 42
-0.0745610604800673
  0
VERTEX
  5
204
  8
SignTorch_HUMMINGBIRD2_
 10
10.72071134069231
 20
7.011444444444444
 30
0.0
 42
-0.0249738326561449
  0
VERTEX
  5
205
  8
SignTorch_HUMMINGBIRD2_
 10
10.75385589895513
 20
7.013495914724533
 30
0.0
 42
-0.0100340773506947
  0
SEQEND
  5
206
  8
SignTorch_HUMMINGBIRD2_
  0
POLYLINE
  5
4C
  8
SignTorch_HUMMINGBIRD2_
 66
     1
 10
0.0
 20
0.0
 30
0.0
 70
     1
  0
VERTEX
  5
207
  8
SignTorch_HUMMINGBIRD2_
 10
10.74546134069231
 20
6.765819444444444
 30
0.0
 42
-0.1116338510894068
  0
VERTEX
  5
208
  8
SignTorch_HUMMINGBIRD2_
 10
10.84059007269983
 20
6.733499216797248
 30
0.0
 42
-0.436948800826355
  0
VERTEX
  5
209
  8
SignTorch_HUMMINGBIRD2_
 10
10.85515079381731
 20
6.660559678819443
 30
0.0
 42
-0.2415148261657963
  0
VERTEX
  5
20A
  8
SignTorch_HUMMINGBIRD2_
 10
10.70968388741817
 20
6.586670298228237
 30
0.0
 42
-0.0654257085876692
  0
VERTEX
  5
20B
  8
SignTorch_HUMMINGBIRD2_
 10
10.59046134069231
 20
6.602819444444443
 30
0.0
 42
0.0247153937786588
  0
VERTEX
  5
20C
  8
SignTorch_HUMMINGBIRD2_
 10
10.36881753844972
 20
6.651425074015474
 30
0.0
 42
-0.0754306453731173
  0
VERTEX
  5
20D
  8
SignTorch_HUMMINGBIRD2_
 10
10.31486173131731
 20
6.669128038194444
 30
0.0
 42
-0.179737435928899
  0
VERTEX
  5
20E
  8
SignTorch_HUMMINGBIRD2_
 10
10.29628929424524
 20
6.68916402711911
 30
0.0
 42
-0.2563494280438888
  0
VERTEX
  5
20F
  8
SignTorch_HUMMINGBIRD2_
 10
10.29846134069231
 20
6.708819444444444
 30
0.0
 42
-0.1799168115702803
  0
VERTEX
  5
210
  8
SignTorch_HUMMINGBIRD2_
 10
10.34379792259432
 20
6.740023966513428
 30
0.0
 42
-0.0701279247106519
  0
VERTEX
  5
211
  8
SignTorch_HUMMINGBIRD2_
 10
10.64046134069231
 20
6.771819444444444
 30
0.0
 42
-0.0059559579246244
  0
VERTEX
  5
212
  8
SignTorch_HUMMINGBIRD2_
 10
10.71072748422895
 20
6.768643432251232
 30
0.0
 42
-0.0120227717803217
  0
SEQEND
  5
213
  8
SignTorch_HUMMINGBIRD2_
  0
POLYLINE
  5
4D
  8
SignTorch_HUMMINGBIRD2_
 66
     1
 10
0.0
 20
0.0
 30
0.0
 70
     1
  0
VERTEX
  5
214
  8
SignTorch_HUMMINGBIRD2_
 10
10.17846134069231
 20
6.446819444444444
 30
0.0
 42
-0.0046925272827782
  0
VERTEX
  5
215
  8
SignTorch_HUMMINGBIRD2_
 10
10.09035598582313
 20
6.476449627966682
 30
0.0
 42
-0.5115008431694019
  0
VERTEX
  5
216
  8
SignTorch_HUMMINGBIRD2_
 10
10.07984415319231
 20
6.511499131944444
 30
0.0
 42
-0.1727701591752497
  0
VERTEX
  5
217
  8
SignTorch_HUMMINGBIRD2_
 10
10.11266034636069
 20
6.532737559986549
 30
0.0
 42
-0.0819124066372483
  0
VERTEX
  5
218
  8
SignTorch_HUMMINGBIRD2_
 10
10.29258634069231
 20
6.545131944444444
 30
0.0
 42
-0.0817724278311467
  0
VERTEX
  5
219
  8
SignTorch_HUMMINGBIRD2_
 10
10.59218568358163
 20
6.466116811772049
 30
0.0
 42
-0.3596994423764883
  0
VERTEX
  5
21A
  8
SignTorch_HUMMINGBIRD2_
 10
10.62720938756731
 20
6.395278428819444
 30
0.0
 42
-0.2567017505087206
  0
VERTEX
  5
21B
  8
SignTorch_HUMMINGBIRD2_
 10
10.56798314465899
 20
6.329622826888208
 30
0.0
 42
-0.1741800768590783
  0
VERTEX
  5
21C
  8
SignTorch_HUMMINGBIRD2_
 10
10.44202384069231
 20
6.330960069444444
 30
0.0
 42
-0.0343969952440023
  0
VERTEX
  5
21D
  8
SignTorch_HUMMINGBIRD2_
 10
10.3108288486473
 20
6.390223404845294
 30
0.0
 42
0.0445326615017516
  0
SEQEND
  5
21E
  8
SignTorch_HUMMINGBIRD2_
  0
POLYLINE
  5
4E
  8
SignTorch_HUMMINGBIRD2_
 66
     1
 10
0.0
 20
0.0
 30
0.0
 70
     1
  0
VERTEX
  5
21F
  8
SignTorch_HUMMINGBIRD2_
 10
10.15671134069231
 20
6.281569444444444
 30
0.0
 42
-0.0793977064994845
  0
VERTEX
  5
220
  8
SignTorch_HUMMINGBIRD2_
 10
10.27174946051172
 20
6.189182668082664
 30
0.0
 42
-0.3844767420716776
  0
VERTEX
  5
221
  8
SignTorch_HUMMINGBIRD2_
 10
10.27180509069231
 20
6.154428819444444
 30
0.0
 42
-0.1821135064287437
  0
VERTEX
  5
222
  8
SignTorch_HUMMINGBIRD2_
 10
10.22022171796736
 20
6.127704150753901
 30
0.0
 42
-0.1053829425315878
  0
VERTEX
  5
223
  8
SignTorch_HUMMINGBIRD2_
 10
10.06932462194231
 20
6.141665147569444
 30
0.0
 42
-0.103686781630808
  0
VERTEX
  5
224
  8
SignTorch_HUMMINGBIRD2_
 10
10.00204443710181
 20
6.179200330084462
 30
0.0
 42
-0.0451140024560685
  0
VERTEX
  5
225
  8
SignTorch_HUMMINGBIRD2_
 10
9.880461340692309
 20
6.305819444444444
 30
0.0
 42
-0.0976886933561264
  0
VERTEX
  5
226
  8
SignTorch_HUMMINGBIRD2_
 10
9.845660713696812
 20
6.372635074485746
 30
0.0
 42
-0.4350978567620823
  0
VERTEX
  5
227
  8
SignTorch_HUMMINGBIRD2_
 10
9.872461340692308
 20
6.417819444444444
 30
0.0
 42
-0.2005742433540458
  0
VERTEX
  5
228
  8
SignTorch_HUMMINGBIRD2_
 10
9.930255493335865
 20
6.407228407163381
 30
0.0
 42
0.0203970255720071
  0
VERTEX
  5
229
  8
SignTorch_HUMMINGBIRD2_
 10
10.02346134069231
 20
6.351819444444445
 30
0.0
 42
0.0080195640100505
  0
VERTEX
  5
22A
  8
SignTorch_HUMMINGBIRD2_
 10
10.09028481270221
 20
6.317070905587785
 30
0.0
 42
-0.0136706321634679
  0
SEQEND
  5
22B
  8
SignTorch_HUMMINGBIRD2_
  0
POLYLINE
  5
4F
  8
SignTorch_HUMMINGBIRD2_
 66
     1
 10
0.0
 20
0.0
 30
0.0
 70
     1
  0
VERTEX
  5
22C
  8
SignTorch_HUMMINGBIRD2_
 10
9.827461340692308
 20
6.117819444444444
 30
0.0
 42
-0.1647302414271182
  0
VERTEX
  5
22D
  8
SignTorch_HUMMINGBIRD2_
 10
9.828264007581991
 20
6.064064756302564
 30
0.0
 42
-0.3118577442334038
  0
VERTEX
  5
22E
  8
SignTorch_HUMMINGBIRD2_
 10
9.782320715692308
 20
6.028803819444445
 30
0.0
 42
-0.17930405535306
  0
VERTEX
  5
22F
  8
SignTorch_HUMMINGBIRD2_
 10
9.709973021331884
 20
6.051567579965389
 30
0.0
 42
-0.1894800160562858
  0
VERTEX
  5
230
  8
SignTorch_HUMMINGBIRD2_
 10
9.673148840692308
 20
6.113475694444444
 30
0.0
 42
-0.0075343807879052
  0
VERTEX
  5
231
  8
SignTorch_HUMMINGBIRD2_
 10
9.659559816991093
 20
6.205242733376163
 30
0.0
 42
0.0260354444669243
  0
VERTEX
  5
232
  8
SignTorch_HUMMINGBIRD2_
 10
9.642586340692308
 20
6.296444444444444
 30
0.0
 42
-0.0409502246645646
  0
VERTEX
  5
233
  8
SignTorch_HUMMINGBIRD2_
 10
9.63231679688456
 20
6.362510931242931
 30
0.0
 42
-0.4843165050380505
  0
VERTEX
  5
234
  8
SignTorch_HUMMINGBIRD2_
 10
9.657191809442308
 20
6.385274522569444
 30
0.0
 42
-0.1962897472346687
  0
VERTEX
  5
235
  8
SignTorch_HUMMINGBIRD2_
 10
9.699076323953129
 20
6.359676094961202
 30
0.0
 42
-0.0734055338498981
  0
SEQEND
  5
236
  8
SignTorch_HUMMINGBIRD2_
  0
POLYLINE
  5
50
  8
SignTorch_HUMMINGBIRD2_
 66
     1
 10
0.0
 20
0.0
 30
0.0
 70
     1
  0
VERTEX
  5
237
  8
SignTorch_HUMMINGBIRD2_
 10
8.864461340692307
 20
7.344819444444444
 30
0.0
 42
-0.2471256050135805
  0
VERTEX
  5
238
  8
SignTorch_HUMMINGBIRD2_
 10
8.893584238106838
 20
7.335203143655013
 30
0.0
 42
-0.1778274368691905
  0
VERTEX
  5
239
  8
SignTorch_HUMMINGBIRD2_
 10
8.910305090692306
 20
7.297288194444445
 30
0.0
 42
-0.4815451425840248
  0
VERTEX
  5
23A
  8
SignTorch_HUMMINGBIRD2_
 10
8.894586412781386
 20
7.283032671422109
 30
0.0
 42
-0.1084265238329874
  0
VERTEX
  5
23B
  8
SignTorch_HUMMINGBIRD2_
 10
8.822617590692309
 20
7.311522569444445
 30
0.0
 42
-0.0389764558282882
  0
VERTEX
  5
23C
  8
SignTorch_HUMMINGBIRD2_
 10
8.811250259439374
 20
7.320544286319686
 30
0.0
 42
-0.2490902237227308
  0
VERTEX
  5
23D
  8
SignTorch_HUMMINGBIRD2_
 10
8.810461340692308
 20
7.322819444444445
 30
0.0
 42
-0.2632009018745115
  0
VERTEX
  5
23E
  8
SignTorch_HUMMINGBIRD2_
 10
8.817283446893057
 20
7.3314447473386
 30
0.0
 42
-0.055371009248287
  0
SEQEND
  5
23F
  8
SignTorch_HUMMINGBIRD2_
  0
POLYLINE
  5
51
  8
SignTorch_HUMMINGBIRD2_
 66
     1
 10
0.0
 20
0.0
 30
0.0
 70
     1
  0
VERTEX
  5
240
  8
SignTorch_HUMMINGBIRD2_
 10
8.39846134069231
 20
6.825819444444444
 30
0.0
 42
0.046931937676458
  0
VERTEX
  5
241
  8
SignTorch_HUMMINGBIRD2_
 10
8.143192939564685
 20
6.871142619161799
 30
0.0
 42
0.0447163073688707
  0
VERTEX
  5
242
  8
SignTorch_HUMMINGBIRD2_
 10
7.871148840692307
 20
6.869116319444444
 30
0.0
 42
0.080273731889131
  0
VERTEX
  5
243
  8
SignTorch_HUMMINGBIRD2_
 10
7.76580656412347
 20
6.841428277134257
 30
0.0
 42
0.0241439006134994
  0
VERTEX
  5
244
  8
SignTorch_HUMMINGBIRD2_
 10
7.444086340692308
 20
6.679819444444444
 30
0.0
 42
-0.0083908567467544
  0
VERTEX
  5
245
  8
SignTorch_HUMMINGBIRD2_
 10
7.103100051343509
 20
6.494861767819358
 30
0.0
 42
-0.0455947746726357
  0
VERTEX
  5
246
  8
SignTorch_HUMMINGBIRD2_
 10
7.036914465692308
 20
6.467725694444445
 30
0.0
 42
-0.0817703116654897
  0
VERTEX
  5
247
  8
SignTorch_HUMMINGBIRD2_
 10
6.998168715973159
 20
6.462471176726302
 30
0.0
 42
-0.3242188526309809
  0
VERTEX
  5
248
  8
SignTorch_HUMMINGBIRD2_
 10
6.989586340692308
 20
6.469069444444445
 30
0.0
 42
-0.1872492866417886
  0
VERTEX
  5
249
  8
SignTorch_HUMMINGBIRD2_
 10
6.992275227774394
 20
6.501827107752209
 30
0.0
 42
0.0451257530990489
  0
VERTEX
  5
24A
  8
SignTorch_HUMMINGBIRD2_
 10
7.038461340692308
 20
6.623819444444443
 30
0.0
 42
0.1290528922964997
  0
VERTEX
  5
24B
  8
SignTorch_HUMMINGBIRD2_
 10
7.045213764193528
 20
7.07261880472154
 30
0.0
 42
0.1483139301561335
  0
VERTEX
  5
24C
  8
SignTorch_HUMMINGBIRD2_
 10
6.922940100457933
 20
7.278406846788194
 30
0.0
 42
-0.0081029179475115
  0
VERTEX
  5
24D
  8
SignTorch_HUMMINGBIRD2_
 10
6.87006224676356
 20
7.328303276502727
 30
0.0
 42
-0.617900624237673
  0
VERTEX
  5
24E
  8
SignTorch_HUMMINGBIRD2_
 10
6.876351965692308
 20
7.348022569444444
 30
0.0
 42
-0.1645433276522818
  0
VERTEX
  5
24F
  8
SignTorch_HUMMINGBIRD2_
 10
6.96538147704108
 20
7.332640573347551
 30
0.0
 42
-0.0184034119032431
  0
VERTEX
  5
250
  8
SignTorch_HUMMINGBIRD2_
 10
7.118086340692308
 20
7.242335069444445
 30
0.0
 42
0.0396947608576325
  0
VERTEX
  5
251
  8
SignTorch_HUMMINGBIRD2_
 10
7.180270731146195
 20
7.20904621205199
 30
0.0
 42
0.4150779717764337
  0
VERTEX
  5
252
  8
SignTorch_HUMMINGBIRD2_
 10
7.213820715692308
 20
7.222241319444444
 30
0.0
 42
0.1539586418732442
  0
VERTEX
  5
253
  8
SignTorch_HUMMINGBIRD2_
 10
7.22227340132063
 20
7.303467797181251
 30
0.0
 42
0.0855826437202475
  0
VERTEX
  5
254
  8
SignTorch_HUMMINGBIRD2_
 10
7.169650793817309
 20
7.438110460069446
 30
0.0
 42
0.1962895666134328
  0
VERTEX
  5
255
  8
SignTorch_HUMMINGBIRD2_
 10
6.968231954464081
 20
7.588018896213931
 30
0.0
 42
0.0781492564474209
  0
VERTEX
  5
256
  8
SignTorch_HUMMINGBIRD2_
 10
6.690461340692308
 20
7.614819444444445
 30
0.0
 42
-0.1575347664282615
  0
VERTEX
  5
257
  8
SignTorch_HUMMINGBIRD2_
 10
6.659440011200823
 20
7.622829986505534
 30
0.0
 42
-0.3236535951975334
  0
VERTEX
  5
258
  8
SignTorch_HUMMINGBIRD2_
 10
6.653211340692308
 20
7.638444444444445
 30
0.0
 42
-0.0708928935253726
  0
VERTEX
  5
259
  8
SignTorch_HUMMINGBIRD2_
 10
6.676630448030203
 20
7.695740799407458
 30
0.0
 42
0.121741297590954
  0
VERTEX
  5
25A
  8
SignTorch_HUMMINGBIRD2_
 10
6.746711340692308
 20
7.932944444444445
 30
0.0
 42
0.0645123027096814
  0
VERTEX
  5
25B
  8
SignTorch_HUMMINGBIRD2_
 10
6.735808341278865
 20
8.062649682774149
 30
0.0
 42
0.0467982160365051
  0
VERTEX
  5
25C
  8
SignTorch_HUMMINGBIRD2_
 10
6.681820715692308
 20
8.233397569444445
 30
0.0
 42
-0.0384554985818021
  0
VERTEX
  5
25D
  8
SignTorch_HUMMINGBIRD2_
 10
6.663372372089573
 20
8.288532741724032
 30
0.0
 42
-0.3867299661776659
  0
VERTEX
  5
25E
  8
SignTorch_HUMMINGBIRD2_
 10
6.677461340692308
 20
8.314819444444444
 30
0.0
 42
-0.0645862438295043
  0
VERTEX
  5
25F
  8
SignTorch_HUMMINGBIRD2_
 10
6.739500745255574
 20
8.328157090293853
 30
0.0
 42
-0.010610852192259
  0
VERTEX
  5
260
  8
SignTorch_HUMMINGBIRD2_
 10
7.123461340692308
 20
8.351819444444445
 30
0.0
 42
-0.0445210189711057
  0
VERTEX
  5
261
  8
SignTorch_HUMMINGBIRD2_
 10
7.625241939473513
 20
8.327386032148409
 30
0.0
 42
-0.0698414511300813
  0
VERTEX
  5
262
  8
SignTorch_HUMMINGBIRD2_
 10
8.609086340692308
 20
8.047569444444445
 30
0.0
 42
-0.0500697231617725
  0
VERTEX
  5
263
  8
SignTorch_HUMMINGBIRD2_
 10
9.278027877751361
 20
7.66756697057371
 30
0.0
 42
-0.0524167720123402
  0
VERTEX
  5
264
  8
SignTorch_HUMMINGBIRD2_
 10
9.829976965692307
 20
7.182100694444444
 30
0.0
 42
-0.0275264053625666
  0
VERTEX
  5
265
  8
SignTorch_HUMMINGBIRD2_
 10
9.852685648468148
 20
7.154564869509183
 30
0.0
 42
-0.4702262952640259
  0
VERTEX
  5
266
  8
SignTorch_HUMMINGBIRD2_
 10
9.844258215692307
 20
7.120788194444444
 30
0.0
 42
-0.013357359326475
  0
VERTEX
  5
267
  8
SignTorch_HUMMINGBIRD2_
 10
9.714121701573465
 20
7.062598097405295
 30
0.0
 42
0.0424520472838444
  0
VERTEX
  5
268
  8
SignTorch_HUMMINGBIRD2_
 10
9.587586340692306
 20
6.996944444444444
 30
0.0
 42
0.0275030010596508
  0
VERTEX
  5
269
  8
SignTorch_HUMMINGBIRD2_
 10
9.529675270934458
 20
6.955735368673158
 30
0.0
 42
0.0124470252399688
  0
VERTEX
  5
26A
  8
SignTorch_HUMMINGBIRD2_
 10
9.409461340692307
 20
6.854819444444444
 30
0.0
 42
-0.1456970718094971
  0
VERTEX
  5
26B
  8
SignTorch_HUMMINGBIRD2_
 10
9.386790407053534
 20
6.844315331292522
 30
0.0
 42
-0.4498214065442117
  0
VERTEX
  5
26C
  8
SignTorch_HUMMINGBIRD2_
 10
9.379508215692308
 20
6.850460069444444
 30
0.0
 42
-0.1008233988951591
  0
VERTEX
  5
26D
  8
SignTorch_HUMMINGBIRD2_
 10
9.385250778351967
 20
6.882663283763723
 30
0.0
 42
0.107657188345756
  0
VERTEX
  5
26E
  8
SignTorch_HUMMINGBIRD2_
 10
9.406476965692308
 20
7.011772569444444
 30
0.0
 42
0.2111187598443452
  0
VERTEX
  5
26F
  8
SignTorch_HUMMINGBIRD2_
 10
9.211843061313676
 20
7.397158996669644
 30
0.0
 42
0.1986444960872389
  0
VERTEX
  5
270
  8
SignTorch_HUMMINGBIRD2_
 10
8.774930090692308
 20
7.529835069444444
 30
0.0
 42
0.1479214701869644
  0
VERTEX
  5
271
  8
SignTorch_HUMMINGBIRD2_
 10
8.543268722579494
 20
7.434317164102876
 30
0.0
 42
-0.1681648644397078
  0
VERTEX
  5
272
  8
SignTorch_HUMMINGBIRD2_
 10
8.416584387567307
 20
7.387846788194444
 30
0.0
 42
-0.0229656845388383
  0
VERTEX
  5
273
  8
SignTorch_HUMMINGBIRD2_
 10
8.254730689548383
 20
7.392307829701593
 30
0.0
 42
0.0505073651570628
  0
VERTEX
  5
274
  8
SignTorch_HUMMINGBIRD2_
 10
7.954189856317308
 20
7.384055772569444
 30
0.0
 42
0.0698772715688719
  0
VERTEX
  5
275
  8
SignTorch_HUMMINGBIRD2_
 10
7.893427366631133
 20
7.36737608612833
 30
0.0
 42
0.5608340984644247
  0
VERTEX
  5
276
  8
SignTorch_HUMMINGBIRD2_
 10
7.888320715692307
 20
7.331428819444444
 30
0.0
 42
0.1333515007706557
  0
VERTEX
  5
277
  8
SignTorch_HUMMINGBIRD2_
 10
7.950311064622238
 20
7.3034083733793
 30
0.0
 42
-0.0022366004592259
  0
VERTEX
  5
278
  8
SignTorch_HUMMINGBIRD2_
 10
8.216961340692308
 20
7.259319444444444
 30
0.0
 42
-0.0079577414700624
  0
VERTEX
  5
279
  8
SignTorch_HUMMINGBIRD2_
 10
8.43708345614099
 20
7.218296794749808
 30
0.0
 42
-0.1999545670343559
  0
VERTEX
  5
27A
  8
SignTorch_HUMMINGBIRD2_
 10
8.513555090692307
 20
7.166553819444444
 30
0.0
 42
-0.1191879361647928
  0
VERTEX
  5
27B
  8
SignTorch_HUMMINGBIRD2_
 10
8.54660854569401
 20
7.074279142926553
 30
0.0
 42
-0.006304771513736
  0
VERTEX
  5
27C
  8
SignTorch_HUMMINGBIRD2_
 10
8.568195715692307
 20
6.845553819444444
 30
0.0
 42
-0.0240630696802064
  0
VERTEX
  5
27D
  8
SignTorch_HUMMINGBIRD2_
 10
8.5700119095309
 20
6.791156798343285
 30
0.0
 42
-0.4429848200197714
  0
VERTEX
  5
27E
  8
SignTorch_HUMMINGBIRD2_
 10
8.551461340692308
 20
6.774819444444444
 30
0.0
 42
-0.0854060125721511
  0
VERTEX
  5
27F
  8
SignTorch_HUMMINGBIRD2_
 10
8.473956436650168
 20
6.797304732318021
 30
0.0
 42
0.0458437156296873
  0
SEQEND
  5
280
  8
SignTorch_HUMMINGBIRD2_
  0
POLYLINE
  5
52
  8
SignTorch_HUMMINGBIRD2_
 66
     1
 10
0.0
 20
0.0
 30
0.0
 70
     1
  0
VERTEX
  5
281
  8
SignTorch_HUMMINGBIRD2_
 10
8.746711340692308
 20
6.081319444444444
 30
0.0
 42
0.0510745640065259
  0
VERTEX
  5
282
  8
SignTorch_HUMMINGBIRD2_
 10
8.74591605395728
 20
5.905363878960686
 30
0.0
 42
0.050068663597131
  0
VERTEX
  5
283
  8
SignTorch_HUMMINGBIRD2_
 10
8.781148840692309
 20
5.729381944444444
 30
0.0
 42
-0.046356049240354
  0
VERTEX
  5
284
  8
SignTorch_HUMMINGBIRD2_
 10
8.805068060841725
 20
5.614343305519659
 30
0.0
 42
-0.266666992270892
  0
VERTEX
  5
285
  8
SignTorch_HUMMINGBIRD2_
 10
8.796389075067308
 20
5.594311631944444
 30
0.0
 42
-0.4161786325250758
  0
VERTEX
  5
286
  8
SignTorch_HUMMINGBIRD2_
 10
8.760617818880828
 20
5.599645074128011
 30
0.0
 42
-0.0759030786817876
  0
VERTEX
  5
287
  8
SignTorch_HUMMINGBIRD2_
 10
8.649980871942308
 20
5.810856553819444
 30
0.0
 42
-0.0536572624210953
  0
VERTEX
  5
288
  8
SignTorch_HUMMINGBIRD2_
 10
8.555762968802588
 20
6.22480592059817
 30
0.0
 42
-0.1166208949247998
  0
VERTEX
  5
289
  8
SignTorch_HUMMINGBIRD2_
 10
8.578535559442308
 20
6.420905381944443
 30
0.0
 42
-0.1294811365798616
  0
VERTEX
  5
28A
  8
SignTorch_HUMMINGBIRD2_
 10
8.625502449446909
 20
6.488777235956832
 30
0.0
 42
-0.3870664773071502
  0
VERTEX
  5
28B
  8
SignTorch_HUMMINGBIRD2_
 10
8.656711340692308
 20
6.487819444444444
 30
0.0
 42
-0.0765378146107464
  0
VERTEX
  5
28C
  8
SignTorch_HUMMINGBIRD2_
 10
8.683447065011235
 20
6.452557006296564
 30
0.0
 42
-0.0301579918508186
  0
VERTEX
  5
28D
  8
SignTorch_HUMMINGBIRD2_
 10
8.753742590692308
 20
6.301538194444444
 30
0.0
 42
-0.1176276933203802
  0
VERTEX
  5
28E
  8
SignTorch_HUMMINGBIRD2_
 10
8.762553492967239
 20
6.239540563089322
 30
0.0
 42
-0.0033930988522993
  0
SEQEND
  5
28F
  8
SignTorch_HUMMINGBIRD2_
  0
POLYLINE
  5
53
  8
SignTorch_HUMMINGBIRD2_
 66
     1
 10
0.0
 20
0.0
 30
0.0
 70
     1
  0
VERTEX
  5
290
  8
SignTorch_HUMMINGBIRD2_
 10
8.346461340692308
 20
6.027819444444444
 30
0.0
 42
-0.1462049181050069
  0
VERTEX
  5
291
  8
SignTorch_HUMMINGBIRD2_
 10
8.330994329112855
 20
5.968543120697347
 30
0.0
 42
-0.3946145482499591
  0
VERTEX
  5
292
  8
SignTorch_HUMMINGBIRD2_
 10
8.24187149694231
 20
5.943542100694444
 30
0.0
 42
-0.1697770727632651
  0
VERTEX
  5
293
  8
SignTorch_HUMMINGBIRD2_
 10
8.209114626925563
 20
5.978267675316263
 30
0.0
 42
-0.1492327558330197
  0
VERTEX
  5
294
  8
SignTorch_HUMMINGBIRD2_
 10
8.202461340692308
 20
6.031819444444444
 30
0.0
 42
-0.0211867662783092
  0
VERTEX
  5
295
  8
SignTorch_HUMMINGBIRD2_
 10
8.21316657235157
 20
6.080832391465141
 30
0.0
 42
-0.0041298224334997
  0
VERTEX
  5
296
  8
SignTorch_HUMMINGBIRD2_
 10
8.280711340692307
 20
6.329069444444444
 30
0.0
 42
-0.1338721137103632
  0
VERTEX
  5
297
  8
SignTorch_HUMMINGBIRD2_
 10
8.305347680542411
 20
6.370160933546355
 30
0.0
 42
-0.5010781227513579
  0
VERTEX
  5
298
  8
SignTorch_HUMMINGBIRD2_
 10
8.320867590692307
 20
6.367585069444443
 30
0.0
 42
-0.1205772665841054
  0
VERTEX
  5
299
  8
SignTorch_HUMMINGBIRD2_
 10
8.332152528068994
 20
6.320927267112868
 30
0.0
 42
0.0178454435938364
  0
VERTEX
  5
29A
  8
SignTorch_HUMMINGBIRD2_
 10
8.338461340692309
 20
6.129819444444444
 30
0.0
 42
0.0089890904772689
  0
VERTEX
  5
29B
  8
SignTorch_HUMMINGBIRD2_
 10
8.342889417627754
 20
6.078853019106048
 30
0.0
 42
-0.0173840675307257
  0
SEQEND
  5
29C
  8
SignTorch_HUMMINGBIRD2_
  0
POLYLINE
  5
54
  8
SignTorch_HUMMINGBIRD2_
 66
     1
 10
0.0
 20
0.0
 30
0.0
 70
     1
  0
VERTEX
  5
29D
  8
SignTorch_HUMMINGBIRD2_
 10
8.111961340692309
 20
6.113694444444445
 30
0.0
 42
-0.0472676364491376
  0
VERTEX
  5
29E
  8
SignTorch_HUMMINGBIRD2_
 10
8.083287270380579
 20
6.045306412854361
 30
0.0
 42
-0.3274638115754959
  0
VERTEX
  5
29F
  8
SignTorch_HUMMINGBIRD2_
 10
8.007836340692307
 20
6.009194444444444
 30
0.0
 42
-0.4329508211864226
  0
VERTEX
  5
2A0
  8
SignTorch_HUMMINGBIRD2_
 10
7.965475197486352
 20
6.075707294696014
 30
0.0
 42
-0.125553475131514
  0
VERTEX
  5
2A1
  8
SignTorch_HUMMINGBIRD2_
 10
8.124461340692308
 20
6.366819444444444
 30
0.0
 42
-0.1366588558702109
  0
VERTEX
  5
2A2
  8
SignTorch_HUMMINGBIRD2_
 10
8.154861469405244
 20
6.385436657604721
 30
0.0
 42
-0.4244589777960393
  0
VERTEX
  5
2A3
  8
SignTorch_HUMMINGBIRD2_
 10
8.166367590692307
 20
6.378772569444443
 30
0.0
 42
-0.1118221785697501
  0
VERTEX
  5
2A4
  8
SignTorch_HUMMINGBIRD2_
 10
8.167387036743342
 20
6.328521746816843
 30
0.0
 42
-0.0250352943161125
  0
SEQEND
  5
2A5
  8
SignTorch_HUMMINGBIRD2_
  0
POLYLINE
  5
55
  8
SignTorch_HUMMINGBIRD2_
 66
     1
 10
0.0
 20
0.0
 30
0.0
 70
     1
  0
VERTEX
  5
2A6
  8
SignTorch_HUMMINGBIRD2_
 10
7.859586340692307
 20
6.323194444444445
 30
0.0
 42
-0.0628474880481285
  0
VERTEX
  5
2A7
  8
SignTorch_HUMMINGBIRD2_
 10
7.928484846243733
 20
6.427265258308766
 30
0.0
 42
-0.4370030336472941
  0
VERTEX
  5
2A8
  8
SignTorch_HUMMINGBIRD2_
 10
7.949764075067307
 20
6.428042100694443
 30
0.0
 42
-0.2102909207859688
  0
VERTEX
  5
2A9
  8
SignTorch_HUMMINGBIRD2_
 10
7.955995633538395
 20
6.411916392341097
 30
0.0
 42
-0.0382767732314908
  0
VERTEX
  5
2AA
  8
SignTorch_HUMMINGBIRD2_
 10
7.944883215692307
 20
6.321506944444444
 30
0.0
 42
-0.0448209223138244
  0
VERTEX
  5
2AB
  8
SignTorch_HUMMINGBIRD2_
 10
7.880013177095846
 20
6.10284462328577
 30
0.0
 42
-0.2387846141389195
  0
VERTEX
  5
2AC
  8
SignTorch_HUMMINGBIRD2_
 10
7.846180090692308
 20
6.072928819444444
 30
0.0
 42
-0.5999331437048786
  0
VERTEX
  5
2AD
  8
SignTorch_HUMMINGBIRD2_
 10
7.783197726458425
 20
6.141177250684096
 30
0.0
 42
-0.0309623736535961
  0
SEQEND
  5
2AE
  8
SignTorch_HUMMINGBIRD2_
  0
POLYLINE
  5
56
  8
SignTorch_HUMMINGBIRD2_
 66
     1
 10
0.0
 20
0.0
 30
0.0
 70
     1
  0
VERTEX
  5
2AF
  8
SignTorch_HUMMINGBIRD2_
 10
7.694461340692307
 20
6.213819444444444
 30
0.0
 42
-0.2088098859008103
  0
VERTEX
  5
2B0
  8
SignTorch_HUMMINGBIRD2_
 10
7.648074466328069
 20
6.184511945914596
 30
0.0
 42
-0.4442579215775114
  0
VERTEX
  5
2B1
  8
SignTorch_HUMMINGBIRD2_
 10
7.578154700067308
 20
6.241559678819445
 30
0.0
 42
-0.1583038859421788
  0
VERTEX
  5
2B2
  8
SignTorch_HUMMINGBIRD2_
 10
7.593559790476706
 20
6.298616954405553
 30
0.0
 42
-0.0681815571268647
  0
VERTEX
  5
2B3
  8
SignTorch_HUMMINGBIRD2_
 10
7.725461340692308
 20
6.450881944444444
 30
0.0
 42
-0.1216318703895262
  0
VERTEX
  5
2B4
  8
SignTorch_HUMMINGBIRD2_
 10
7.766214371107871
 20
6.472031590707583
 30
0.0
 42
-0.4242779499274714
  0
VERTEX
  5
2B5
  8
SignTorch_HUMMINGBIRD2_
 10
7.796461340692308
 20
6.452819444444444
 30
0.0
 42
-0.1405019609755805
  0
VERTEX
  5
2B6
  8
SignTorch_HUMMINGBIRD2_
 10
7.794402953199032
 20
6.426063698920419
 30
0.0
 42
-0.0262718458397349
  0
VERTEX
  5
2B7
  8
SignTorch_HUMMINGBIRD2_
 10
7.738461340692307
 20
6.296819444444444
 30
0.0
 42
-0.0066080164545104
  0
VERTEX
  5
2B8
  8
SignTorch_HUMMINGBIRD2_
 10
7.703977517275927
 20
6.229639776008725
 30
0.0
 42
-0.0270468663360877
  0
SEQEND
  5
2B9
  8
SignTorch_HUMMINGBIRD2_
  0
POLYLINE
  5
57
  8
SignTorch_HUMMINGBIRD2_
 66
     1
 10
0.0
 20
0.0
 30
0.0
 70
     1
  0
VERTEX
  5
2BA
  8
SignTorch_HUMMINGBIRD2_
 10
7.545336340692308
 20
6.383319444444444
 30
0.0
 42
-0.0056033500151697
  0
VERTEX
  5
2BB
  8
SignTorch_HUMMINGBIRD2_
 10
7.467789984478365
 20
6.292052050592614
 30
0.0
 42
-0.3573656499197537
  0
VERTEX
  5
2BC
  8
SignTorch_HUMMINGBIRD2_
 10
7.421834387567308
 20
6.284217881944445
 30
0.0
 42
-0.3042848356621403
  0
VERTEX
  5
2BD
  8
SignTorch_HUMMINGBIRD2_
 10
7.395627344952135
 20
6.336791071751874
 30
0.0
 42
-0.1780942408683636
  0
VERTEX
  5
2BE
  8
SignTorch_HUMMINGBIRD2_
 10
7.439461340692309
 20
6.420819444444444
 30
0.0
 42
-0.0408263559844572
  0
VERTEX
  5
2BF
  8
SignTorch_HUMMINGBIRD2_
 10
7.496726029681641
 20
6.464885411074618
 30
0.0
 42
-0.0275378645608371
  0
VERTEX
  5
2C0
  8
SignTorch_HUMMINGBIRD2_
 10
7.589648840692307
 20
6.517991319444444
 30
0.0
 42
-0.103328437681504
  0
VERTEX
  5
2C1
  8
SignTorch_HUMMINGBIRD2_
 10
7.635891871877133
 20
6.53020468299182
 30
0.0
 42
-0.3541668304756618
  0
VERTEX
  5
2C2
  8
SignTorch_HUMMINGBIRD2_
 10
7.648461340692307
 20
6.521069444444445
 30
0.0
 42
-0.2672683240972479
  0
VERTEX
  5
2C3
  8
SignTorch_HUMMINGBIRD2_
 10
7.639256193472672
 20
6.486573342731401
 30
0.0
 42
0.0225055870171703
  0
SEQEND
  5
2C4
  8
SignTorch_HUMMINGBIRD2_
  0
POLYLINE
  5
58
  8
SignTorch_HUMMINGBIRD2_
 66
     1
 10
0.0
 20
0.0
 30
0.0
 70
     1
  0
VERTEX
  5
2C5
  8
SignTorch_HUMMINGBIRD2_
 10
5.727336340692307
 20
8.026069444444445
 30
0.0
 42
-0.019350243814036
  0
VERTEX
  5
2C6
  8
SignTorch_HUMMINGBIRD2_
 10
5.823116597535944
 20
8.068226529159203
 30
0.0
 42
-0.2428144328768921
  0
VERTEX
  5
2C7
  8
SignTorch_HUMMINGBIRD2_
 10
5.928049231317307
 20
8.057647569444446
 30
0.0
 42
-0.1085636866063164
  0
VERTEX
  5
2C8
  8
SignTorch_HUMMINGBIRD2_
 10
6.024204656174523
 20
7.959986509282984
 30
0.0
 42
-0.0082374535408844
  0
VERTEX
  5
2C9
  8
SignTorch_HUMMINGBIRD2_
 10
6.179461340692308
 20
7.703819444444445
 30
0.0
 42
0.0241795388271123
  0
VERTEX
  5
2CA
  8
SignTorch_HUMMINGBIRD2_
 10
6.206944673787745
 20
7.661572073517164
 30
0.0
 42
-0.375703355874452
  0
VERTEX
  5
2CB
  8
SignTorch_HUMMINGBIRD2_
 10
6.205711340692308
 20
7.648444444444444
 30
0.0
 42
-0.2942199044689944
  0
VERTEX
  5
2CC
  8
SignTorch_HUMMINGBIRD2_
 10
6.183705077969637
 20
7.644302129076265
 30
0.0
 42
0.0518068314607001
  0
VERTEX
  5
2CD
  8
SignTorch_HUMMINGBIRD2_
 10
6.099568762567308
 20
7.668743272569445
 30
0.0
 42
0.1302131049932268
  0
VERTEX
  5
2CE
  8
SignTorch_HUMMINGBIRD2_
 10
5.888486319502868
 20
7.651868004270629
 30
0.0
 42
0.0237467016369145
  0
VERTEX
  5
2CF
  8
SignTorch_HUMMINGBIRD2_
 10
5.563383215692308
 20
7.519663194444444
 30
0.0
 42
0.0509654813168814
  0
VERTEX
  5
2D0
  8
SignTorch_HUMMINGBIRD2_
 10
5.501305410683172
 20
7.482825791354479
 30
0.0
 42
0.5036874073637612
  0
VERTEX
  5
2D1
  8
SignTorch_HUMMINGBIRD2_
 10
5.501289465692308
 20
7.406725694444445
 30
0.0
 42
0.1223858336689205
  0
VERTEX
  5
2D2
  8
SignTorch_HUMMINGBIRD2_
 10
5.547482181354029
 20
7.387507568288956
 30
0.0
 42
-0.5630404464269188
  0
VERTEX
  5
2D3
  8
SignTorch_HUMMINGBIRD2_
 10
5.566711340692308
 20
7.341319444444444
 30
0.0
 42
-0.0246598791246625
  0
VERTEX
  5
2D4
  8
SignTorch_HUMMINGBIRD2_
 10
5.533744144593108
 20
7.300586137896833
 30
0.0
 42
0.0568533606601897
  0
VERTEX
  5
2D5
  8
SignTorch_HUMMINGBIRD2_
 10
5.503461340692308
 20
7.257819444444443
 30
0.0
 42
-0.0739173259295278
  0
VERTEX
  5
2D6
  8
SignTorch_HUMMINGBIRD2_
 10
5.479085531955821
 20
7.225762543803038
 30
0.0
 42
-0.3395956030666433
  0
VERTEX
  5
2D7
  8
SignTorch_HUMMINGBIRD2_
 10
5.469430090692308
 20
7.224614366319444
 30
0.0
 42
-0.1889673418768883
  0
VERTEX
  5
2D8
  8
SignTorch_HUMMINGBIRD2_
 10
5.445774891986034
 20
7.255038844410002
 30
0.0
 42
0.1482609230008203
  0
VERTEX
  5
2D9
  8
SignTorch_HUMMINGBIRD2_
 10
5.406461340692307
 20
7.314819444444445
 30
0.0
 42
0.2015336554676173
  0
VERTEX
  5
2DA
  8
SignTorch_HUMMINGBIRD2_
 10
5.367159712482118
 20
7.326846014973056
 30
0.0
 42
0.2549012780847389
  0
VERTEX
  5
2DB
  8
SignTorch_HUMMINGBIRD2_
 10
5.339711340692308
 20
7.308069444444445
 30
0.0
 42
0.0831081245331384
  0
VERTEX
  5
2DC
  8
SignTorch_HUMMINGBIRD2_
 10
5.315770968661557
 20
7.232246694429398
 30
0.0
 42
-0.1338956214305832
  0
VERTEX
  5
2DD
  8
SignTorch_HUMMINGBIRD2_
 10
5.190226965692308
 20
6.940372178819445
 30
0.0
 42
-0.0993761890336445
  0
VERTEX
  5
2DE
  8
SignTorch_HUMMINGBIRD2_
 10
5.095035024779427
 20
6.86014776159044
 30
0.0
 42
0.2069576502515112
  0
VERTEX
  5
2DF
  8
SignTorch_HUMMINGBIRD2_
 10
5.053820715692308
 20
6.807094835069444
 30
0.0
 42
0.068798246429236
  0
VERTEX
  5
2E0
  8
SignTorch_HUMMINGBIRD2_
 10
5.047003797847271
 20
6.748044312038885
 30
0.0
 42
-0.1783499569756491
  0
VERTEX
  5
2E1
  8
SignTorch_HUMMINGBIRD2_
 10
5.027711340692308
 20
6.691819444444444
 30
0.0
 42
-0.0428142170817132
  0
VERTEX
  5
2E2
  8
SignTorch_HUMMINGBIRD2_
 10
5.007043188835992
 20
6.670466636221678
 30
0.0
 42
-0.0206008003950311
  0
VERTEX
  5
2E3
  8
SignTorch_HUMMINGBIRD2_
 10
4.897836340692308
 20
6.583069444444444
 30
0.0
 42
-0.1039457496945058
  0
VERTEX
  5
2E4
  8
SignTorch_HUMMINGBIRD2_
 10
4.871364416180816
 20
6.571038439817149
 30
0.0
 42
-0.3791219070633929
  0
VERTEX
  5
2E5
  8
SignTorch_HUMMINGBIRD2_
 10
4.863471106317308
 20
6.575405381944444
 30
0.0
 42
-0.1551049449387469
  0
VERTEX
  5
2E6
  8
SignTorch_HUMMINGBIRD2_
 10
4.862780615375137
 20
6.596354880885356
 30
0.0
 42
0.0467437748362587
  0
VERTEX
  5
2E7
  8
SignTorch_HUMMINGBIRD2_
 10
4.877836340692308
 20
6.678444444444444
 30
0.0
 42
0.0623475224887228
  0
VERTEX
  5
2E8
  8
SignTorch_HUMMINGBIRD2_
 10
4.870481282078338
 20
6.879514717593032
 30
0.0
 42
-0.1145396715406653
  0
VERTEX
  5
2E9
  8
SignTorch_HUMMINGBIRD2_
 10
4.873851965692308
 20
6.929756944444444
 30
0.0
 42
-0.0317425099686094
  0
VERTEX
  5
2EA
  8
SignTorch_HUMMINGBIRD2_
 10
4.897855132751256
 20
6.993810843218031
 30
0.0
 42
0.0655042780661516
  0
VERTEX
  5
2EB
  8
SignTorch_HUMMINGBIRD2_
 10
4.917492590692308
 20
7.059335069444444
 30
0.0
 42
0.0730639401330668
  0
VERTEX
  5
2EC
  8
SignTorch_HUMMINGBIRD2_
 10
4.920520235296985
 20
7.268281152141244
 30
0.0
 42
0.436269836651123
  0
VERTEX
  5
2ED
  8
SignTorch_HUMMINGBIRD2_
 10
4.896330481317308
 20
7.285428819444444
 30
0.0
 42
0.307356170994067
  0
VERTEX
  5
2EE
  8
SignTorch_HUMMINGBIRD2_
 10
4.876552664581742
 20
7.264963642508619
 30
0.0
 42
-0.0192454750189704
  0
VERTEX
  5
2EF
  8
SignTorch_HUMMINGBIRD2_
 10
4.853508215692308
 20
7.157069444444444
 30
0.0
 42
-0.0554521256367178
  0
VERTEX
  5
2F0
  8
SignTorch_HUMMINGBIRD2_
 10
4.827876913816221
 20
7.08891184603717
 30
0.0
 42
-0.3431115018148203
  0
VERTEX
  5
2F1
  8
SignTorch_HUMMINGBIRD2_
 10
4.816008215692308
 20
7.083335069444444
 30
0.0
 42
-0.1540236787866085
  0
VERTEX
  5
2F2
  8
SignTorch_HUMMINGBIRD2_
 10
4.788156007047176
 20
7.099558471362216
 30
0.0
 42
0.2106341286206376
  0
VERTEX
  5
2F3
  8
SignTorch_HUMMINGBIRD2_
 10
4.670461340692308
 20
7.151819444444445
 30
0.0
 42
0.092316713144903
  0
VERTEX
  5
2F4
  8
SignTorch_HUMMINGBIRD2_
 10
4.59365412106921
 20
7.13772975544023
 30
0.0
 42
-0.5045564126338644
  0
VERTEX
  5
2F5
  8
SignTorch_HUMMINGBIRD2_
 10
4.576242590692308
 20
7.148866319444444
 30
0.0
 42
-0.1683107006112068
  0
VERTEX
  5
2F6
  8
SignTorch_HUMMINGBIRD2_
 10
4.578004981385733
 20
7.15532701984983
 30
0.0
 42
-0.0314608566521243
  0
VERTEX
  5
2F7
  8
SignTorch_HUMMINGBIRD2_
 10
4.599461340692308
 20
7.182819444444444
 30
0.0
 42
-0.0508436289194719
  0
VERTEX
  5
2F8
  8
SignTorch_HUMMINGBIRD2_
 10
5.100973072645473
 20
7.644058704647769
 30
0.0
 42
-0.047202298544585
  0
SEQEND
  5
2F9
  8
SignTorch_HUMMINGBIRD2_
  0
POLYLINE
  5
59
  8
SignTorch_HUMMINGBIRD2_
 66
     1
 10
0.0
 20
0.0
 30
0.0
 70
     1
  0
VERTEX
  5
2FA
  8
SignTorch_HUMMINGBIRD2_
 10
6.330586340692308
 20
8.247069444444445
 30
0.0
 42
-0.0114077005163222
  0
VERTEX
  5
2FB
  8
SignTorch_HUMMINGBIRD2_
 10
6.472889817952113
 20
8.28278177960509
 30
0.0
 42
-0.3816153121222054
  0
VERTEX
  5
2FC
  8
SignTorch_HUMMINGBIRD2_
 10
6.525753821161058
 20
8.253485460069445
 30
0.0
 42
-0.1164590404557076
  0
VERTEX
  5
2FD
  8
SignTorch_HUMMINGBIRD2_
 10
6.532906159204073
 20
8.184800388808878
 30
0.0
 42
-0.0391393193422225
  0
VERTEX
  5
2FE
  8
SignTorch_HUMMINGBIRD2_
 10
6.491305090692308
 20
7.986069444444444
 30
0.0
 42
-0.0261041049335984
  0
VERTEX
  5
2FF
  8
SignTorch_HUMMINGBIRD2_
 10
6.466982951803648
 20
7.916603044288123
 30
0.0
 42
-0.5503606925657587
  0
VERTEX
  5
300
  8
SignTorch_HUMMINGBIRD2_
 10
6.433851965692307
 20
7.910725694444444
 30
0.0
 42
-0.1073538743232772
  0
VERTEX
  5
301
  8
SignTorch_HUMMINGBIRD2_
 10
6.409246388657754
 20
7.953085186763853
 30
0.0
 42
0.1803161992948467
  0
VERTEX
  5
302
  8
SignTorch_HUMMINGBIRD2_
 10
6.287943518426683
 20
8.106464463975694
 30
0.0
 42
0.0881680013008587
  0
VERTEX
  5
303
  8
SignTorch_HUMMINGBIRD2_
 10
6.215156106178333
 20
8.134609679747978
 30
0.0
 42
-0.0195680256786577
  0
VERTEX
  5
304
  8
SignTorch_HUMMINGBIRD2_
 10
6.139211340692309
 20
8.152569444444445
 30
0.0
 42
-0.0117718663971015
  0
VERTEX
  5
305
  8
SignTorch_HUMMINGBIRD2_
 10
6.104926026528318
 20
8.162983551151212
 30
0.0
 42
-0.4501747941474618
  0
VERTEX
  5
306
  8
SignTorch_HUMMINGBIRD2_
 10
6.101101965692307
 20
8.171870225694445
 30
0.0
 42
-0.2488318945052342
  0
VERTEX
  5
307
  8
SignTorch_HUMMINGBIRD2_
 10
6.118193625335524
 20
8.184686347990311
 30
0.0
 42
0.0393381037516464
  0
VERTEX
  5
308
  8
SignTorch_HUMMINGBIRD2_
 10
6.156461340692307
 20
8.193819444444445
 30
0.0
 42
-0.0040333726954017
  0
VERTEX
  5
309
  8
SignTorch_HUMMINGBIRD2_
 10
6.266788031127366
 20
8.228534610995828
 30
0.0
 42
-0.0070219780162167
  0
SEQEND
  5
30A
  8
SignTorch_HUMMINGBIRD2_
  0
POLYLINE
  5
5A
  8
SignTorch_HUMMINGBIRD2_
 66
     1
 10
0.0
 20
0.0
 30
0.0
 70
     1
  0
VERTEX
  5
30B
  8
SignTorch_HUMMINGBIRD2_
 10
6.471461340692308
 20
7.507819444444443
 30
0.0
 42
-0.0528622104950427
  0
VERTEX
  5
30C
  8
SignTorch_HUMMINGBIRD2_
 10
6.447411175231713
 20
7.488846503602443
 30
0.0
 42
-0.6049020170508554
  0
VERTEX
  5
30D
  8
SignTorch_HUMMINGBIRD2_
 10
6.433443762567308
 20
7.496950303819444
 30
0.0
 42
-0.1201284140320641
  0
VERTEX
  5
30E
  8
SignTorch_HUMMINGBIRD2_
 10
6.439856936056533
 20
7.519079748929236
 30
0.0
 42
-0.0022948867908686
  0
VERTEX
  5
30F
  8
SignTorch_HUMMINGBIRD2_
 10
6.485836340692307
 20
7.598319444444444
 30
0.0
 42
-0.142762108196702
  0
VERTEX
  5
310
  8
SignTorch_HUMMINGBIRD2_
 10
6.512644804717103
 20
7.623637939701199
 30
0.0
 42
-0.4877502431532295
  0
VERTEX
  5
311
  8
SignTorch_HUMMINGBIRD2_
 10
6.539398840692308
 20
7.611225694444446
 30
0.0
 42
-0.2053373201272743
  0
VERTEX
  5
312
  8
SignTorch_HUMMINGBIRD2_
 10
6.534635769070042
 20
7.584478964413996
 30
0.0
 42
-0.0540431887299695
  0
SEQEND
  5
313
  8
SignTorch_HUMMINGBIRD2_
  0
POLYLINE
  5
5B
  8
SignTorch_HUMMINGBIRD2_
 66
     1
 10
0.0
 20
0.0
 30
0.0
 70
     1
  0
VERTEX
  5
314
  8
SignTorch_HUMMINGBIRD2_
 10
6.514586340692308
 20
7.459194444444444
 30
0.0
 42
-0.1878331022601286
  0
VERTEX
  5
315
  8
SignTorch_HUMMINGBIRD2_
 10
6.489543417154972
 20
7.463711339887351
 30
0.0
 42
-0.4298668059539027
  0
VERTEX
  5
316
  8
SignTorch_HUMMINGBIRD2_
 10
6.486902746942308
 20
7.476159288194444
 30
0.0
 42
-0.1324445256661337
  0
VERTEX
  5
317
  8
SignTorch_HUMMINGBIRD2_
 10
6.516790732052894
 20
7.501564730147113
 30
0.0
 42
-0.0631309160698407
  0
VERTEX
  5
318
  8
SignTorch_HUMMINGBIRD2_
 10
6.593992590692308
 20
7.526725694444445
 30
0.0
 42
-0.2467965346078264
  0
VERTEX
  5
319
  8
SignTorch_HUMMINGBIRD2_
 10
6.631827484878289
 20
7.515230549794304
 30
0.0
 42
-0.5556123089745645
  0
VERTEX
  5
31A
  8
SignTorch_HUMMINGBIRD2_
 10
6.623117590692308
 20
7.476710069444444
 30
0.0
 42
-0.1389675755640857
  0
VERTEX
  5
31B
  8
SignTorch_HUMMINGBIRD2_
 10
6.593813816282811
 20
7.475009284905187
 30
0.0
 42
0.1128044661862704
  0
VERTEX
  5
31C
  8
SignTorch_HUMMINGBIRD2_
 10
6.564461340692308
 20
7.474819444444444
 30
0.0
 42
0.041038117473241
  0
VERTEX
  5
31D
  8
SignTorch_HUMMINGBIRD2_
 10
6.539598520455456
 20
7.466768566640472
 30
0.0
 42
-0.0506169833769965
  0
SEQEND
  5
31E
  8
SignTorch_HUMMINGBIRD2_
  0
POLYLINE
  5
5C
  8
SignTorch_HUMMINGBIRD2_
 66
     1
 10
0.0
 20
0.0
 30
0.0
 70
     1
  0
VERTEX
  5
31F
  8
SignTorch_HUMMINGBIRD2_
 10
6.519461340692308
 20
7.415819444444444
 30
0.0
 42
-0.2620408949288942
  0
VERTEX
  5
320
  8
SignTorch_HUMMINGBIRD2_
 10
6.549628066132192
 20
7.399589318234666
 30
0.0
 42
-0.5647084032622676
  0
VERTEX
  5
321
  8
SignTorch_HUMMINGBIRD2_
 10
6.533980871942308
 20
7.368282335069445
 30
0.0
 42
-0.0778342948509792
  0
VERTEX
  5
322
  8
SignTorch_HUMMINGBIRD2_
 10
6.495243764400045
 20
7.371238920260334
 30
0.0
 42
0.0518601795817868
  0
VERTEX
  5
323
  8
SignTorch_HUMMINGBIRD2_
 10
6.456711340692308
 20
7.376194444444445
 30
0.0
 42
-0.0516984507249561
  0
VERTEX
  5
324
  8
SignTorch_HUMMINGBIRD2_
 10
6.428549680883794
 20
7.379806985270452
 30
0.0
 42
-0.7410706729119577
  0
VERTEX
  5
325
  8
SignTorch_HUMMINGBIRD2_
 10
6.426711340692308
 20
7.408319444444444
 30
0.0
 42
-0.0698561997633679
  0
VERTEX
  5
326
  8
SignTorch_HUMMINGBIRD2_
 10
6.44323998440451
 20
7.412018568890707
 30
0.0
 42
-0.0154322080270683
  0
SEQEND
  5
327
  8
SignTorch_HUMMINGBIRD2_
  0
POLYLINE
  5
5D
  8
SignTorch_HUMMINGBIRD2_
 66
     1
 10
0.0
 20
0.0
 30
0.0
 70
     1
  0
VERTEX
  5
328
  8
SignTorch_HUMMINGBIRD2_
 10
5.941461340692308
 20
7.319819444444445
 30
0.0
 42
-0.402705341856963
  0
VERTEX
  5
329
  8
SignTorch_HUMMINGBIRD2_
 10
5.946637854903564
 20
7.307694433600087
 30
0.0
 42
-0.133776864392166
  0
VERTEX
  5
32A
  8
SignTorch_HUMMINGBIRD2_
 10
5.926211340692308
 20
7.279569444444444
 30
0.0
 42
-0.0939838285344449
  0
VERTEX
  5
32B
  8
SignTorch_HUMMINGBIRD2_
 10
5.874236519195623
 20
7.25189605340755
 30
0.0
 42
-0.3333354403230722
  0
VERTEX
  5
32C
  8
SignTorch_HUMMINGBIRD2_
 10
5.857008215692308
 20
7.258022569444445
 30
0.0
 42
-0.1123114083723125
  0
VERTEX
  5
32D
  8
SignTorch_HUMMINGBIRD2_
 10
5.835438254683448
 20
7.314991882627229
 30
0.0
 42
-0.3469613630233698
  0
VERTEX
  5
32E
  8
SignTorch_HUMMINGBIRD2_
 10
5.846461340692309
 20
7.333819444444444
 30
0.0
 42
-0.1306125994996936
  0
VERTEX
  5
32F
  8
SignTorch_HUMMINGBIRD2_
 10
5.878611908185101
 20
7.337482312935542
 30
0.0
 42
-0.0639131087616643
  0
SEQEND
  5
330
  8
SignTorch_HUMMINGBIRD2_
  0
POLYLINE
  5
5E
  8
SignTorch_HUMMINGBIRD2_
 66
     1
 10
0.0
 20
0.0
 30
0.0
 70
     1
  0
VERTEX
  5
331
  8
SignTorch_HUMMINGBIRD2_
 10
4.628318762567307
 20
6.893678819444444
 30
0.0
 42
-0.3208008370495569
  0
VERTEX
  5
332
  8
SignTorch_HUMMINGBIRD2_
 10
4.586602494574163
 20
6.946186912636946
 30
0.0
 42
-0.5010013890903801
  0
VERTEX
  5
333
  8
SignTorch_HUMMINGBIRD2_
 10
4.679943762567308
 20
7.023602647569444
 30
0.0
 42
-0.2944430301641168
  0
VERTEX
  5
334
  8
SignTorch_HUMMINGBIRD2_
 10
4.73315947660102
 20
6.967791880343359
 30
0.0
 42
-0.3362912830487789
  0
VERTEX
  5
335
  8
SignTorch_HUMMINGBIRD2_
 10
4.702461340692308
 20
6.905819444444444
 30
0.0
 42
-0.0750773850805147
  0
VERTEX
  5
336
  8
SignTorch_HUMMINGBIRD2_
 10
4.659262852306635
 20
6.891877863144647
 30
0.0
 42
-0.1106691907445084
  0
SEQEND
  5
337
  8
SignTorch_HUMMINGBIRD2_
  0
POLYLINE
  5
5F
  8
SignTorch_HUMMINGBIRD2_
 66
     1
 10
0.0
 20
0.0
 30
0.0
 70
     1
  0
VERTEX
  5
338
  8
SignTorch_HUMMINGBIRD2_
 10
4.341461340692308
 20
6.853819444444444
 30
0.0
 42
0.0004501378378031
  0
VERTEX
  5
339
  8
SignTorch_HUMMINGBIRD2_
 10
4.408332198844435
 20
6.951534471955138
 30
0.0
 42
-0.1245310601610428
  0
VERTEX
  5
33A
  8
SignTorch_HUMMINGBIRD2_
 10
4.430648840692308
 20
6.971256944444443
 30
0.0
 42
-0.5857017764889241
  0
VERTEX
  5
33B
  8
SignTorch_HUMMINGBIRD2_
 10
4.45195949310868
 20
6.957181964361514
 30
0.0
 42
0.0816971879218735
  0
VERTEX
  5
33C
  8
SignTorch_HUMMINGBIRD2_
 10
4.460461340692308
 20
6.863444444444443
 30
0.0
 42
0.3281679378619721
  0
VERTEX
  5
33D
  8
SignTorch_HUMMINGBIRD2_
 10
4.592668970550938
 20
6.755848401484501
 30
0.0
 42
0.1019877706744481
  0
VERTEX
  5
33E
  8
SignTorch_HUMMINGBIRD2_
 10
4.711195715692308
 20
6.774288194444445
 30
0.0
 42
-0.0516849878389581
  0
VERTEX
  5
33F
  8
SignTorch_HUMMINGBIRD2_
 10
4.733484750062066
 20
6.780082493525916
 30
0.0
 42
-0.4007918333087302
  0
VERTEX
  5
340
  8
SignTorch_HUMMINGBIRD2_
 10
4.754258215692308
 20
6.765522569444444
 30
0.0
 42
-0.0922399211407202
  0
VERTEX
  5
341
  8
SignTorch_HUMMINGBIRD2_
 10
4.755207338995149
 20
6.693273514129329
 30
0.0
 42
-0.0319769953257115
  0
VERTEX
  5
342
  8
SignTorch_HUMMINGBIRD2_
 10
4.707086340692308
 20
6.492069444444445
 30
0.0
 42
-0.1301972050045015
  0
VERTEX
  5
343
  8
SignTorch_HUMMINGBIRD2_
 10
4.613493503716074
 20
6.341995930797809
 30
0.0
 42
0.0405666755885724
  0
VERTEX
  5
344
  8
SignTorch_HUMMINGBIRD2_
 10
4.393461340692308
 20
6.098819444444445
 30
0.0
 42
0.0455603710092519
  0
VERTEX
  5
345
  8
SignTorch_HUMMINGBIRD2_
 10
4.370846075550053
 20
6.063012856134408
 30
0.0
 42
-0.1372237384908853
  0
VERTEX
  5
346
  8
SignTorch_HUMMINGBIRD2_
 10
4.342133215692307
 20
6.031881944444444
 30
0.0
 42
-0.6995360290396235
  0
VERTEX
  5
347
  8
SignTorch_HUMMINGBIRD2_
 10
4.326764388191864
 20
6.044002794260271
 30
0.0
 42
0.0444570225315964
  0
VERTEX
  5
348
  8
SignTorch_HUMMINGBIRD2_
 10
4.342336340692308
 20
6.110819444444444
 30
0.0
 42
0.0993421096350998
  0
VERTEX
  5
349
  8
SignTorch_HUMMINGBIRD2_
 10
4.327537638785194
 20
6.366026947895755
 30
0.0
 42
0.1164717425706638
  0
VERTEX
  5
34A
  8
SignTorch_HUMMINGBIRD2_
 10
4.224961340692308
 20
6.559335069444444
 30
0.0
 42
-0.0722877610621225
  0
VERTEX
  5
34B
  8
SignTorch_HUMMINGBIRD2_
 10
4.193857135605196
 20
6.607286894555407
 30
0.0
 42
-0.2088759572436743
  0
VERTEX
  5
34C
  8
SignTorch_HUMMINGBIRD2_
 10
4.193461340692308
 20
6.627819444444444
 30
0.0
 42
-0.0519658007987888
  0
VERTEX
  5
34D
  8
SignTorch_HUMMINGBIRD2_
 10
4.219238210390881
 20
6.67541067741599
 30
0.0
 42
-0.000202363931878
  0
SEQEND
  5
34E
  8
SignTorch_HUMMINGBIRD2_
  0
POLYLINE
  5
60
  8
SignTorch_HUMMINGBIRD2_
 66
     1
 10
0.0
 20
0.0
 30
0.0
 70
     1
  0
VERTEX
  5
34F
  8
SignTorch_HUMMINGBIRD2_
 10
4.036461340692307
 20
6.102819444444443
 30
0.0
 42
0.0316818782258149
  0
VERTEX
  5
350
  8
SignTorch_HUMMINGBIRD2_
 10
3.899382865486595
 20
6.422245274011367
 30
0.0
 42
-0.0275907920805506
  0
VERTEX
  5
351
  8
SignTorch_HUMMINGBIRD2_
 10
3.864461340692309
 20
6.501819444444443
 30
0.0
 42
-0.1192631041862889
  0
VERTEX
  5
352
  8
SignTorch_HUMMINGBIRD2_
 10
3.862056932437822
 20
6.521597679486582
 30
0.0
 42
-0.4044112792731738
  0
VERTEX
  5
353
  8
SignTorch_HUMMINGBIRD2_
 10
3.867273840692308
 20
6.525866319444445
 30
0.0
 42
-0.2430385605172652
  0
VERTEX
  5
354
  8
SignTorch_HUMMINGBIRD2_
 10
3.882153761722033
 20
6.516544001445928
 30
0.0
 42
-0.0005766783362215
  0
VERTEX
  5
355
  8
SignTorch_HUMMINGBIRD2_
 10
3.917039465692308
 20
6.457428819444445
 30
0.0
 42
-0.0308402425813575
  0
VERTEX
  5
356
  8
SignTorch_HUMMINGBIRD2_
 10
4.035296458814037
 20
6.224806498523182
 30
0.0
 42
-0.0341773307530257
  0
VERTEX
  5
357
  8
SignTorch_HUMMINGBIRD2_
 10
4.113914465692308
 20
6.002788194444443
 30
0.0
 42
-0.0273875952549644
  0
VERTEX
  5
358
  8
SignTorch_HUMMINGBIRD2_
 10
4.13327177111983
 20
5.915088078530185
 30
0.0
 42
-0.1686420452176415
  0
VERTEX
  5
359
  8
SignTorch_HUMMINGBIRD2_
 10
4.130711340692308
 20
5.900319444444444
 30
0.0
 42
-0.6448363105867109
  0
VERTEX
  5
35A
  8
SignTorch_HUMMINGBIRD2_
 10
4.110205539749878
 20
5.901973328051702
 30
0.0
 42
0.0098331161525577
  0
VERTEX
  5
35B
  8
SignTorch_HUMMINGBIRD2_
 10
4.084461340692307
 20
5.969444444444444
 30
0.0
 42
-0.0140918920233096
  0
VERTEX
  5
35C
  8
SignTorch_HUMMINGBIRD2_
 10
4.059758689117751
 20
6.035879068901211
 30
0.0
 42
0.0035548832299254
  0
SEQEND
  5
35D
  8
SignTorch_HUMMINGBIRD2_
  0
POLYLINE
  5
61
  8
SignTorch_HUMMINGBIRD2_
 66
     1
 10
0.0
 20
0.0
 30
0.0
 70
     1
  0
VERTEX
  5
35E
  8
SignTorch_HUMMINGBIRD2_
 10
4.090461340692308
 20
4.962819444444444
 30
0.0
 42
-0.032404268644631
  0
VERTEX
  5
35F
  8
SignTorch_HUMMINGBIRD2_
 10
4.128670757506605
 20
5.185601795639195
 30
0.0
 42
-0.0351310307647536
  0
VERTEX
  5
360
  8
SignTorch_HUMMINGBIRD2_
 10
4.237219153192307
 20
5.530542100694444
 30
0.0
 42
-0.0795848439989637
  0
VERTEX
  5
361
  8
SignTorch_HUMMINGBIRD2_
 10
4.51239675476834
 20
5.9959760302834
 30
0.0
 42
-0.0566241023301236
  0
VERTEX
  5
362
  8
SignTorch_HUMMINGBIRD2_
 10
5.058961340692308
 20
6.520569444444444
 30
0.0
 42
-0.0092495868533462
  0
VERTEX
  5
363
  8
SignTorch_HUMMINGBIRD2_
 10
5.154992245154409
 20
6.591068122126437
 30
0.0
 42
-0.1515127220360218
  0
VERTEX
  5
364
  8
SignTorch_HUMMINGBIRD2_
 10
5.204742590692308
 20
6.607225694444444
 30
0.0
 42
0.0636342090306318
  0
VERTEX
  5
365
  8
SignTorch_HUMMINGBIRD2_
 10
5.326371691213594
 20
6.624413729148439
 30
0.0
 42
0.1356550456410748
  0
VERTEX
  5
366
  8
SignTorch_HUMMINGBIRD2_
 10
5.376586340692308
 20
6.654319444444443
 30
0.0
 42
0.0846907672288331
  0
VERTEX
  5
367
  8
SignTorch_HUMMINGBIRD2_
 10
5.410344769067462
 20
6.704196532974994
 30
0.0
 42
-0.2230312755523373
  0
VERTEX
  5
368
  8
SignTorch_HUMMINGBIRD2_
 10
5.456180090692308
 20
6.743266710069444
 30
0.0
 42
-0.139374648631001
  0
VERTEX
  5
369
  8
SignTorch_HUMMINGBIRD2_
 10
5.561814594048506
 20
6.74221486363007
 30
0.0
 42
-0.0091229640732339
  0
VERTEX
  5
36A
  8
SignTorch_HUMMINGBIRD2_
 10
5.788461340692308
 20
6.670819444444444
 30
0.0
 42
0.1304657660680662
  0
VERTEX
  5
36B
  8
SignTorch_HUMMINGBIRD2_
 10
5.830211787062344
 20
6.668145981786712
 30
0.0
 42
0.2493363172383797
  0
VERTEX
  5
36C
  8
SignTorch_HUMMINGBIRD2_
 10
5.847928137567308
 20
6.682596788194443
 30
0.0
 42
0.1921255526069644
  0
VERTEX
  5
36D
  8
SignTorch_HUMMINGBIRD2_
 10
5.848742942290196
 20
6.727271975037461
 30
0.0
 42
0.0859829377523641
  0
VERTEX
  5
36E
  8
SignTorch_HUMMINGBIRD2_
 10
5.799461340692308
 20
6.810819444444443
 30
0.0
 42
-0.1164897328979652
  0
VERTEX
  5
36F
  8
SignTorch_HUMMINGBIRD2_
 10
5.786800337186066
 20
6.835588177677036
 30
0.0
 42
-0.3641779674949991
  0
VERTEX
  5
370
  8
SignTorch_HUMMINGBIRD2_
 10
5.791195715692308
 20
6.844506944444444
 30
0.0
 42
-0.1026352127883668
  0
VERTEX
  5
371
  8
SignTorch_HUMMINGBIRD2_
 10
5.843931160943154
 20
6.855739035520031
 30
0.0
 42
0.073825956679067
  0
VERTEX
  5
372
  8
SignTorch_HUMMINGBIRD2_
 10
6.057025793817308
 20
6.888530381944444
 30
0.0
 42
0.0782583973602652
  0
VERTEX
  5
373
  8
SignTorch_HUMMINGBIRD2_
 10
6.201247092249656
 20
6.959315339199325
 30
0.0
 42
0.3278797857752367
  0
VERTEX
  5
374
  8
SignTorch_HUMMINGBIRD2_
 10
6.214711340692308
 20
6.999319444444444
 30
0.0
 42
0.2476864726828412
  0
VERTEX
  5
375
  8
SignTorch_HUMMINGBIRD2_
 10
6.174636518910911
 20
7.038662928458197
 30
0.0
 42
-0.0727502471248158
  0
VERTEX
  5
376
  8
SignTorch_HUMMINGBIRD2_
 10
6.080637121942307
 20
7.082438585069443
 30
0.0
 42
-0.1780371815055913
  0
VERTEX
  5
377
  8
SignTorch_HUMMINGBIRD2_
 10
6.063362391618917
 20
7.105769883769972
 30
0.0
 42
-0.3325552228657152
  0
VERTEX
  5
378
  8
SignTorch_HUMMINGBIRD2_
 10
6.069211340692308
 20
7.121444444444444
 30
0.0
 42
-0.0918053061041224
  0
VERTEX
  5
379
  8
SignTorch_HUMMINGBIRD2_
 10
6.120849175973894
 20
7.142577032965213
 30
0.0
 42
0.0574590539165534
  0
VERTEX
  5
37A
  8
SignTorch_HUMMINGBIRD2_
 10
6.219180090692308
 20
7.175178819444445
 30
0.0
 42
-0.0208973025142323
  0
VERTEX
  5
37B
  8
SignTorch_HUMMINGBIRD2_
 10
6.279341555653583
 20
7.200130276747435
 30
0.0
 42
-0.4753234501608106
  0
VERTEX
  5
37C
  8
SignTorch_HUMMINGBIRD2_
 10
6.294629309442308
 20
7.191047960069444
 30
0.0
 42
-0.1161161655970909
  0
VERTEX
  5
37D
  8
SignTorch_HUMMINGBIRD2_
 10
6.292109144987751
 20
7.161076581296169
 30
0.0
 42
0.0548075850841591
  0
VERTEX
  5
37E
  8
SignTorch_HUMMINGBIRD2_
 10
6.267586340692308
 20
7.043475694444444
 30
0.0
 42
0.0380396218685905
  0
VERTEX
  5
37F
  8
SignTorch_HUMMINGBIRD2_
 10
6.262100613424163
 20
6.769657722047668
 30
0.0
 42
-0.0658454199345522
  0
VERTEX
  5
380
  8
SignTorch_HUMMINGBIRD2_
 10
6.250976965692308
 20
6.622585069444444
 30
0.0
 42
0.0374755885543552
  0
VERTEX
  5
381
  8
SignTorch_HUMMINGBIRD2_
 10
6.243455296231645
 20
6.565966549243572
 30
0.0
 42
0.443424684523867
  0
VERTEX
  5
382
  8
SignTorch_HUMMINGBIRD2_
 10
6.284412512567307
 20
6.524364366319444
 30
0.0
 42
0.1599366581305329
  0
VERTEX
  5
383
  8
SignTorch_HUMMINGBIRD2_
 10
6.342984687581294
 20
6.546325664067998
 30
0.0
 42
0.1044001778939006
  0
VERTEX
  5
384
  8
SignTorch_HUMMINGBIRD2_
 10
6.485461340692308
 20
6.720069444444444
 30
0.0
 42
0.0800033657604154
  0
VERTEX
  5
385
  8
SignTorch_HUMMINGBIRD2_
 10
6.565939075557283
 20
6.963630330094385
 30
0.0
 42
0.0876369021524061
  0
VERTEX
  5
386
  8
SignTorch_HUMMINGBIRD2_
 10
6.562336340692307
 20
7.198069444444444
 30
0.0
 42
0.0396050474110972
  0
VERTEX
  5
387
  8
SignTorch_HUMMINGBIRD2_
 10
6.554309771161222
 20
7.227143684190392
 30
0.0
 42
-0.749132035833109
  0
VERTEX
  5
388
  8
SignTorch_HUMMINGBIRD2_
 10
6.573043371942308
 20
7.240901475694445
 30
0.0
 42
-0.0839755027852173
  0
VERTEX
  5
389
  8
SignTorch_HUMMINGBIRD2_
 10
6.617666619783348
 20
7.19307695581481
 30
0.0
 42
-0.0378890178301593
  0
VERTEX
  5
38A
  8
SignTorch_HUMMINGBIRD2_
 10
6.723461340692308
 20
7.002819444444444
 30
0.0
 42
-0.0377654913644442
  0
VERTEX
  5
38B
  8
SignTorch_HUMMINGBIRD2_
 10
6.781603286860404
 20
6.846576275911476
 30
0.0
 42
-0.0216287690486258
  0
VERTEX
  5
38C
  8
SignTorch_HUMMINGBIRD2_
 10
6.850023840692307
 20
6.563928819444444
 30
0.0
 42
-0.0241516506061463
  0
VERTEX
  5
38D
  8
SignTorch_HUMMINGBIRD2_
 10
6.873421656426162
 20
6.404762455769583
 30
0.0
 42
0.4043004398493455
  0
VERTEX
  5
38E
  8
SignTorch_HUMMINGBIRD2_
 10
6.905711340692308
 20
6.377303819444443
 30
0.0
 42
-0.0731893374414912
  0
VERTEX
  5
38F
  8
SignTorch_HUMMINGBIRD2_
 10
6.935093642627342
 20
6.374876664080449
 30
0.0
 42
-0.1437074096156328
  0
VERTEX
  5
390
  8
SignTorch_HUMMINGBIRD2_
 10
6.948367590692308
 20
6.367381944444444
 30
0.0
 42
0.0232224862828346
  0
VERTEX
  5
391
  8
SignTorch_HUMMINGBIRD2_
 10
7.017684354974497
 20
6.302414406245878
 30
0.0
 42
0.0829266207598654
  0
VERTEX
  5
392
  8
SignTorch_HUMMINGBIRD2_
 10
7.077410559442308
 20
6.266522569444444
 30
0.0
 42
0.0668545309379316
  0
VERTEX
  5
393
  8
SignTorch_HUMMINGBIRD2_
 10
7.228749095720217
 20
6.229146465834034
 30
0.0
 42
-0.1932441031434569
  0
VERTEX
  5
394
  8
SignTorch_HUMMINGBIRD2_
 10
7.303023840692308
 20
6.189491319444445
 30
0.0
 42
-0.1010406676861059
  0
VERTEX
  5
395
  8
SignTorch_HUMMINGBIRD2_
 10
7.32999572068864
 20
6.13979164739499
 30
0.0
 42
0.2706688239364693
  0
VERTEX
  5
396
  8
SignTorch_HUMMINGBIRD2_
 10
7.494289465692308
 20
5.987866319444445
 30
0.0
 42
0.0916458270606926
  0
VERTEX
  5
397
  8
SignTorch_HUMMINGBIRD2_
 10
7.569777094898009
 20
5.985234256282918
 30
0.0
 42
-0.2191618208118311
  0
VERTEX
  5
398
  8
SignTorch_HUMMINGBIRD2_
 10
7.608945715692307
 20
5.973819444444444
 30
0.0
 42
-0.1035673756339605
  0
VERTEX
  5
399
  8
SignTorch_HUMMINGBIRD2_
 10
7.636699826938849
 20
5.937259304375028
 30
0.0
 42
0.2626416189294392
  0
VERTEX
  5
39A
  8
SignTorch_HUMMINGBIRD2_
 10
7.785336340692308
 20
5.832444444444445
 30
0.0
 42
0.1025260529265335
  0
VERTEX
  5
39B
  8
SignTorch_HUMMINGBIRD2_
 10
7.871039563029994
 20
5.841375004760782
 30
0.0
 42
-0.1635480029592462
  0
VERTEX
  5
39C
  8
SignTorch_HUMMINGBIRD2_
 10
7.957195715692308
 20
5.839991319444444
 30
0.0
 42
-0.0752317967457933
  0
VERTEX
  5
39D
  8
SignTorch_HUMMINGBIRD2_
 10
8.019606328481776
 20
5.80666494664476
 30
0.0
 42
0.1831782526530779
  0
VERTEX
  5
39E
  8
SignTorch_HUMMINGBIRD2_
 10
8.087635168817307
 20
5.787227647569443
 30
0.0
 42
0.0682229222749722
  0
VERTEX
  5
39F
  8
SignTorch_HUMMINGBIRD2_
 10
8.147250083169675
 20
5.800575472219075
 30
0.0
 42
-0.1865594790594953
  0
VERTEX
  5
3A0
  8
SignTorch_HUMMINGBIRD2_
 10
8.208336340692307
 20
5.799819444444444
 30
0.0
 42
-0.0354497329157305
  0
VERTEX
  5
3A1
  8
SignTorch_HUMMINGBIRD2_
 10
8.240527316176882
 20
5.784185016348795
 30
0.0
 42
0.1002364998262569
  0
VERTEX
  5
3A2
  8
SignTorch_HUMMINGBIRD2_
 10
8.274461340692307
 20
5.772819444444444
 30
0.0
 42
0.1763881206849603
  0
VERTEX
  5
3A3
  8
SignTorch_HUMMINGBIRD2_
 10
8.4269778587385
 20
5.8078554502058
 30
0.0
 42
-0.2305199213333801
  0
VERTEX
  5
3A4
  8
SignTorch_HUMMINGBIRD2_
 10
8.465851965692307
 20
5.812616319444444
 30
0.0
 42
-0.2413857980108225
  0
VERTEX
  5
3A5
  8
SignTorch_HUMMINGBIRD2_
 10
8.493426335996702
 20
5.783940783201245
 30
0.0
 42
0.0180954077218509
  0
VERTEX
  5
3A6
  8
SignTorch_HUMMINGBIRD2_
 10
8.543758215692307
 20
5.636178819444444
 30
0.0
 42
0.0954969505937371
  0
VERTEX
  5
3A7
  8
SignTorch_HUMMINGBIRD2_
 10
8.665629847645707
 20
5.439571735790468
 30
0.0
 42
0.040289335237189
  0
VERTEX
  5
3A8
  8
SignTorch_HUMMINGBIRD2_
 10
8.769461340692308
 20
5.343819444444444
 30
0.0
 42
-0.0164258905929301
  0
VERTEX
  5
3A9
  8
SignTorch_HUMMINGBIRD2_
 10
8.902070306114918
 20
5.232745569365738
 30
0.0
 42
-0.2329802910361865
  0
VERTEX
  5
3AA
  8
SignTorch_HUMMINGBIRD2_
 10
8.966090246942306
 20
5.073799913194444
 30
0.0
 42
-0.048934765273201
  0
VERTEX
  5
3AB
  8
SignTorch_HUMMINGBIRD2_
 10
8.946215522578209
 20
4.959854604047101
 30
0.0
 42
-0.0319983721078091
  0
VERTEX
  5
3AC
  8
SignTorch_HUMMINGBIRD2_
 10
8.854461340692309
 20
4.695819444444444
 30
0.0
 42
-0.0032887477475307
  0
VERTEX
  5
3AD
  8
SignTorch_HUMMINGBIRD2_
 10
8.761363022232995
 20
4.478657904203184
 30
0.0
 42
0.1010414125549495
  0
VERTEX
  5
3AE
  8
SignTorch_HUMMINGBIRD2_
 10
8.722070715692308
 20
4.294475694444444
 30
0.0
 42
0.0694522994758147
  0
VERTEX
  5
3AF
  8
SignTorch_HUMMINGBIRD2_
 10
8.727995581761125
 20
4.249120874551627
 30
0.0
 42
-0.3559161151631786
  0
VERTEX
  5
3B0
  8
SignTorch_HUMMINGBIRD2_
 10
8.70954141881731
 20
4.207268663194443
 30
0.0
 42
-0.0688629151069874
  0
VERTEX
  5
3B1
  8
SignTorch_HUMMINGBIRD2_
 10
8.641685360459059
 20
4.183713057211173
 30
0.0
 42
0.0511306716747454
  0
VERTEX
  5
3B2
  8
SignTorch_HUMMINGBIRD2_
 10
8.573039465692307
 20
4.162569444444443
 30
0.0
 42
0.0359463484449203
  0
VERTEX
  5
3B3
  8
SignTorch_HUMMINGBIRD2_
 10
8.334630808809155
 20
4.04061803394898
 30
0.0
 42
0.041641234568154
  0
VERTEX
  5
3B4
  8
SignTorch_HUMMINGBIRD2_
 10
8.147476965692308
 20
3.904756944444444
 30
0.0
 42
-0.0085988609130871
  0
VERTEX
  5
3B5
  8
SignTorch_HUMMINGBIRD2_
 10
8.091419763152397
 20
3.858116833162114
 30
0.0
 42
-0.3891641505321466
  0
VERTEX
  5
3B6
  8
SignTorch_HUMMINGBIRD2_
 10
8.072133215692308
 20
3.859381944444444
 30
0.0
 42
-0.1782663074917382
  0
VERTEX
  5
3B7
  8
SignTorch_HUMMINGBIRD2_
 10
8.060794245253337
 20
3.88545585293423
 30
0.0
 42
0.0269696619287816
  0
VERTEX
  5
3B8
  8
SignTorch_HUMMINGBIRD2_
 10
8.048273840692309
 20
3.997475694444444
 30
0.0
 42
0.0404750069513284
  0
VERTEX
  5
3B9
  8
SignTorch_HUMMINGBIRD2_
 10
7.995197230474167
 20
4.208739403882785
 30
0.0
 42
-0.2503611173639108
  0
VERTEX
  5
3BA
  8
SignTorch_HUMMINGBIRD2_
 10
8.014461340692307
 20
4.325444444444444
 30
0.0
 42
0.0064963923467256
  0
VERTEX
  5
3BB
  8
SignTorch_HUMMINGBIRD2_
 10
8.063455661366744
 20
4.391079421454697
 30
0.0
 42
0.0502819008974069
  0
VERTEX
  5
3BC
  8
SignTorch_HUMMINGBIRD2_
 10
8.10871134069231
 20
4.468715928819444
 30
0.0
 42
0.0713118773040073
  0
VERTEX
  5
3BD
  8
SignTorch_HUMMINGBIRD2_
 10
8.190517610705369
 20
4.748042673886236
 30
0.0
 42
0.2231895119611828
  0
VERTEX
  5
3BE
  8
SignTorch_HUMMINGBIRD2_
 10
8.067666418817309
 20
5.149934678819443
 30
0.0
 42
0.0651262670617911
  0
VERTEX
  5
3BF
  8
SignTorch_HUMMINGBIRD2_
 10
7.882337971554863
 20
5.307588660033795
 30
0.0
 42
0.0876424628021819
  0
VERTEX
  5
3C0
  8
SignTorch_HUMMINGBIRD2_
 10
7.383586340692307
 20
5.518444444444444
 30
0.0
 42
0.0006281425120358
  0
VERTEX
  5
3C1
  8
SignTorch_HUMMINGBIRD2_
 10
7.192347859092463
 20
5.561989553303445
 30
0.0
 42
-0.0461971373852006
  0
VERTEX
  5
3C2
  8
SignTorch_HUMMINGBIRD2_
 10
7.037195715692308
 20
5.612538194444443
 30
0.0
 42
0.0422052119964876
  0
VERTEX
  5
3C3
  8
SignTorch_HUMMINGBIRD2_
 10
6.94944082534148
 20
5.641904286523875
 30
0.0
 42
0.3055365236878987
  0
VERTEX
  5
3C4
  8
SignTorch_HUMMINGBIRD2_
 10
6.852556311395432
 20
5.606044542100694
 30
0.0
 42
0.0937844550994496
  0
VERTEX
  5
3C5
  8
SignTorch_HUMMINGBIRD2_
 10
6.808584820782952
 20
5.511720823832837
 30
0.0
 42
0.0511736918819895
  0
VERTEX
  5
3C6
  8
SignTorch_HUMMINGBIRD2_
 10
6.765789465692309
 20
5.222585069444444
 30
0.0
 42
0.0322939545574348
  0
VERTEX
  5
3C7
  8
SignTorch_HUMMINGBIRD2_
 10
6.768158136726449
 20
5.103447664669755
 30
0.0
 42
-0.1396076798684949
  0
VERTEX
  5
3C8
  8
SignTorch_HUMMINGBIRD2_
 10
6.762418932604334
 20
5.07407750181731
 30
0.0
 42
-0.6044935601459681
  0
VERTEX
  5
3C9
  8
SignTorch_HUMMINGBIRD2_
 10
6.751958653393092
 20
5.073941904194959
 30
0.0
 42
-0.0156280348197813
  0
VERTEX
  5
3CA
  8
SignTorch_HUMMINGBIRD2_
 10
6.735461340692308
 20
5.106819444444444
 30
0.0
 42
0.0091407892244136
  0
VERTEX
  5
3CB
  8
SignTorch_HUMMINGBIRD2_
 10
6.654663114017151
 20
5.273192112674565
 30
0.0
 42
0.1611177833224746
  0
VERTEX
  5
3CC
  8
SignTorch_HUMMINGBIRD2_
 10
6.528058996942307
 20
5.398669053819444
 30
0.0
 42
0.1877731049649792
  0
VERTEX
  5
3CD
  8
SignTorch_HUMMINGBIRD2_
 10
6.224074523143426
 20
5.426167124728094
 30
0.0
 42
-0.0918539415457698
  0
VERTEX
  5
3CE
  8
SignTorch_HUMMINGBIRD2_
 10
6.147863684442307
 20
5.418688585069445
 30
0.0
 42
-0.4653436457441731
  0
VERTEX
  5
3CF
  8
SignTorch_HUMMINGBIRD2_
 10
6.126878079122687
 20
5.448438671696799
 30
0.0
 42
-0.0529448349418534
  0
VERTEX
  5
3D0
  8
SignTorch_HUMMINGBIRD2_
 10
6.150586340692308
 20
5.510944444444444
 30
0.0
 42
0.0449985698975503
  0
VERTEX
  5
3D1
  8
SignTorch_HUMMINGBIRD2_
 10
6.214073468844658
 20
5.670642913207508
 30
0.0
 42
0.1022709727677881
  0
VERTEX
  5
3D2
  8
SignTorch_HUMMINGBIRD2_
 10
6.238336340692308
 20
5.956694444444444
 30
0.0
 42
0.1156889969156716
  0
VERTEX
  5
3D3
  8
SignTorch_HUMMINGBIRD2_
 10
6.14293263023129
 20
6.218403529812162
 30
0.0
 42
0.1536677018945172
  0
VERTEX
  5
3D4
  8
SignTorch_HUMMINGBIRD2_
 10
6.040621496942308
 20
6.302145616319444
 30
0.0
 42
0.1742121082811574
  0
VERTEX
  5
3D5
  8
SignTorch_HUMMINGBIRD2_
 10
6.009574774091834
 20
6.303264104461172
 30
0.0
 42
0.2304852099128319
  0
VERTEX
  5
3D6
  8
SignTorch_HUMMINGBIRD2_
 10
5.992211340692307
 20
6.286694444444444
 30
0.0
 42
0.1518390625461552
  0
VERTEX
  5
3D7
  8
SignTorch_HUMMINGBIRD2_
 10
5.988453591771037
 20
6.217624955638827
 30
0.0
 42
-0.1345889428001051
  0
VERTEX
  5
3D8
  8
SignTorch_HUMMINGBIRD2_
 10
5.982769934442308
 20
5.941028428819443
 30
0.0
 42
-0.0664733936692313
  0
VERTEX
  5
3D9
  8
SignTorch_HUMMINGBIRD2_
 10
5.920924255708824
 20
5.802860696779182
 30
0.0
 42
0.0514862972917994
  0
VERTEX
  5
3DA
  8
SignTorch_HUMMINGBIRD2_
 10
5.798461340692308
 20
5.549819444444444
 30
0.0
 42
-0.0725303165948982
  0
VERTEX
  5
3DB
  8
SignTorch_HUMMINGBIRD2_
 10
5.781580768169741
 20
5.518373513976505
 30
0.0
 42
-0.3893050815383141
  0
VERTEX
  5
3DC
  8
SignTorch_HUMMINGBIRD2_
 10
5.774101965692308
 20
5.516928819444444
 30
0.0
 42
-0.1348336066320122
  0
VERTEX
  5
3DD
  8
SignTorch_HUMMINGBIRD2_
 10
5.750895492167832
 20
5.541786285499235
 30
0.0
 42
0.0646544339345707
  0
VERTEX
  5
3DE
  8
SignTorch_HUMMINGBIRD2_
 10
5.672883215692307
 20
5.652897569444443
 30
0.0
 42
0.128111105036769
  0
VERTEX
  5
3DF
  8
SignTorch_HUMMINGBIRD2_
 10
5.511520847962304
 20
5.757397353855652
 30
0.0
 42
0.1677071081973974
  0
VERTEX
  5
3E0
  8
SignTorch_HUMMINGBIRD2_
 10
5.082789465692307
 20
5.752053819444445
 30
0.0
 42
0.0417484126463427
  0
VERTEX
  5
3E1
  8
SignTorch_HUMMINGBIRD2_
 10
4.985038313276815
 20
5.707431976518611
 30
0.0
 42
0.0372377835102081
  0
VERTEX
  5
3E2
  8
SignTorch_HUMMINGBIRD2_
 10
4.884711340692308
 20
5.640819444444444
 30
0.0
 42
0.147991329432395
  0
VERTEX
  5
3E3
  8
SignTorch_HUMMINGBIRD2_
 10
4.849854413662218
 20
5.591618626529328
 30
0.0
 42
0.3987367641586193
  0
VERTEX
  5
3E4
  8
SignTorch_HUMMINGBIRD2_
 10
4.872475012567307
 20
5.543104600694445
 30
0.0
 42
0.1224112183254129
  0
VERTEX
  5
3E5
  8
SignTorch_HUMMINGBIRD2_
 10
4.925815181839651
 20
5.536019734519946
 30
0.0
 42
-0.0990241233447968
  0
VERTEX
  5
3E6
  8
SignTorch_HUMMINGBIRD2_
 10
5.140211340692307
 20
5.517569444444444
 30
0.0
 42
-0.0467517846657105
  0
VERTEX
  5
3E7
  8
SignTorch_HUMMINGBIRD2_
 10
5.358962997426858
 20
5.431036805748767
 30
0.0
 42
-0.118756494433081
  0
VERTEX
  5
3E8
  8
SignTorch_HUMMINGBIRD2_
 10
5.406851965692307
 20
5.390163194444444
 30
0.0
 42
-0.6780904311037474
  0
VERTEX
  5
3E9
  8
SignTorch_HUMMINGBIRD2_
 10
5.38960340696323
 20
5.362886801456798
 30
0.0
 42
0.0606204761037105
  0
VERTEX
  5
3EA
  8
SignTorch_HUMMINGBIRD2_
 10
5.275086340692308
 20
5.370194444444444
 30
0.0
 42
0.1373115689963328
  0
VERTEX
  5
3EB
  8
SignTorch_HUMMINGBIRD2_
 10
5.025617850854195
 20
5.284666415490244
 30
0.0
 42
-0.0533143472181033
  0
VERTEX
  5
3EC
  8
SignTorch_HUMMINGBIRD2_
 10
4.967492590692308
 20
5.253163194444443
 30
0.0
 42
-0.1291189205975846
  0
VERTEX
  5
3ED
  8
SignTorch_HUMMINGBIRD2_
 10
4.944812878351241
 20
5.250121336716901
 30
0.0
 42
-0.4735981293923401
  0
VERTEX
  5
3EE
  8
SignTorch_HUMMINGBIRD2_
 10
4.940805090692307
 20
5.256475694444444
 30
0.0
 42
-0.1290416937838803
  0
VERTEX
  5
3EF
  8
SignTorch_HUMMINGBIRD2_
 10
4.962950884916234
 20
5.290382714337802
 30
0.0
 42
0.2717139044597715
  0
VERTEX
  5
3F0
  8
SignTorch_HUMMINGBIRD2_
 10
5.011174231317308
 20
5.443760850694444
 30
0.0
 42
0.4826615553245694
  0
VERTEX
  5
3F1
  8
SignTorch_HUMMINGBIRD2_
 10
4.936179668982938
 20
5.479566480296358
 30
0.0
 42
0.1341853775496757
  0
VERTEX
  5
3F2
  8
SignTorch_HUMMINGBIRD2_
 10
4.673461340692308
 20
5.248819444444444
 30
0.0
 42
-0.0544075452683139
  0
VERTEX
  5
3F3
  8
SignTorch_HUMMINGBIRD2_
 10
4.608280132587626
 20
5.170169503943294
 30
0.0
 42
-0.3265962928814399
  0
VERTEX
  5
3F4
  8
SignTorch_HUMMINGBIRD2_
 10
4.589683996942308
 20
5.167573350694443
 30
0.0
 42
-0.1311630385336284
  0
VERTEX
  5
3F5
  8
SignTorch_HUMMINGBIRD2_
 10
4.55849893958009
 20
5.196828403826858
 30
0.0
 42
0.3387163564388327
  0
VERTEX
  5
3F6
  8
SignTorch_HUMMINGBIRD2_
 10
4.484782141473558
 20
5.224671495225694
 30
0.0
 42
0.1152636058228414
  0
VERTEX
  5
3F7
  8
SignTorch_HUMMINGBIRD2_
 10
4.427166184624259
 20
5.191564073841638
 30
0.0
 42
0.0189790137732362
  0
VERTEX
  5
3F8
  8
SignTorch_HUMMINGBIRD2_
 10
4.146461340692308
 20
4.908819444444444
 30
0.0
 42
0.0208271489755952
  0
VERTEX
  5
3F9
  8
SignTorch_HUMMINGBIRD2_
 10
4.119130031243496
 20
4.876513520927775
 30
0.0
 42
-0.64772720442027
  0
VERTEX
  5
3FA
  8
SignTorch_HUMMINGBIRD2_
 10
4.085851965692308
 20
4.884631944444444
 30
0.0
 42
-0.0602843956696758
  0
VERTEX
  5
3FB
  8
SignTorch_HUMMINGBIRD2_
 10
4.085074282458633
 20
4.897253359830045
 30
0.0
 42
-0.0115472365773352
  0
SEQEND
  5
3FC
  8
SignTorch_HUMMINGBIRD2_
  0
POLYLINE
  5
62
  8
SignTorch_HUMMINGBIRD2_
 66
     1
 10
0.0
 20
0.0
 30
0.0
 70
     1
  0
VERTEX
  5
3FD
  8
SignTorch_HUMMINGBIRD2_
 10
3.795461340692308
 20
4.446319444444444
 30
0.0
 42
0.0147858347918946
  0
VERTEX
  5
3FE
  8
SignTorch_HUMMINGBIRD2_
 10
3.729279933646881
 20
4.326514341366202
 30
0.0
 42
-0.5996987217712133
  0
VERTEX
  5
3FF
  8
SignTorch_HUMMINGBIRD2_
 10
3.690961340692308
 20
4.325928819444444
 30
0.0
 42
-0.0867275770147248
  0
VERTEX
  5
400
  8
SignTorch_HUMMINGBIRD2_
 10
3.661167731754266
 20
4.412162941097437
 30
0.0
 42
-0.0401233225166341
  0
VERTEX
  5
401
  8
SignTorch_HUMMINGBIRD2_
 10
3.637617590692308
 20
4.708022569444443
 30
0.0
 42
-0.0315562635726784
  0
VERTEX
  5
402
  8
SignTorch_HUMMINGBIRD2_
 10
3.662794330500085
 20
5.101712872347133
 30
0.0
 42
-0.0388778532386709
  0
VERTEX
  5
403
  8
SignTorch_HUMMINGBIRD2_
 10
3.779086340692308
 20
5.661944444444444
 30
0.0
 42
-0.0553864093261625
  0
VERTEX
  5
404
  8
SignTorch_HUMMINGBIRD2_
 10
3.796375807767124
 20
5.70364373581789
 30
0.0
 42
-0.3938851142651696
  0
VERTEX
  5
405
  8
SignTorch_HUMMINGBIRD2_
 10
3.820945715692309
 20
5.711694444444444
 30
0.0
 42
-0.0982225208604629
  0
VERTEX
  5
406
  8
SignTorch_HUMMINGBIRD2_
 10
3.854249235558509
 20
5.68743153998907
 30
0.0
 42
0.1264304323847787
  0
VERTEX
  5
407
  8
SignTorch_HUMMINGBIRD2_
 10
3.992617590692308
 20
5.597975694444444
 30
0.0
 42
0.0611354697330781
  0
VERTEX
  5
408
  8
SignTorch_HUMMINGBIRD2_
 10
4.059680428363443
 20
5.584362593419302
 30
0.0
 42
-0.4326728802130559
  0
VERTEX
  5
409
  8
SignTorch_HUMMINGBIRD2_
 10
4.083301184442308
 20
5.554909288194444
 30
0.0
 42
-0.0647426696396732
  0
VERTEX
  5
40A
  8
SignTorch_HUMMINGBIRD2_
 10
4.063562431452187
 20
5.483606100955695
 30
0.0
 42
0.029716574840224
  0
VERTEX
  5
40B
  8
SignTorch_HUMMINGBIRD2_
 10
4.017758215692309
 20
5.354100694444444
 30
0.0
 42
0.0334752271997556
  0
VERTEX
  5
40C
  8
SignTorch_HUMMINGBIRD2_
 10
3.932343960325966
 20
4.960346807693217
 30
0.0
 42
0.0402895096049912
  0
VERTEX
  5
40D
  8
SignTorch_HUMMINGBIRD2_
 10
3.918883215692308
 20
4.757163194444444
 30
0.0
 42
-0.0490332458511868
  0
VERTEX
  5
40E
  8
SignTorch_HUMMINGBIRD2_
 10
3.910698819822975
 20
4.659497825603699
 30
0.0
 42
-0.0876070526137288
  0
VERTEX
  5
40F
  8
SignTorch_HUMMINGBIRD2_
 10
3.891461340692308
 20
4.607819444444444
 30
0.0
 42
-0.0022000465913466
  0
VERTEX
  5
410
  8
SignTorch_HUMMINGBIRD2_
 10
3.843524556531565
 20
4.527031867227301
 30
0.0
 42
0.0014171854599916
  0
SEQEND
  5
411
  8
SignTorch_HUMMINGBIRD2_
  0
POLYLINE
  5
63
  8
SignTorch_HUMMINGBIRD2_
 66
     1
 10
0.0
 20
0.0
 30
0.0
 70
     1
  0
VERTEX
  5
412
  8
SignTorch_HUMMINGBIRD2_
 10
4.046461340692308
 20
4.096819444444444
 30
0.0
 42
-0.0258459281569166
  0
VERTEX
  5
413
  8
SignTorch_HUMMINGBIRD2_
 10
4.072326957004837
 20
3.957795035831513
 30
0.0
 42
-0.0661452886800002
  0
VERTEX
  5
414
  8
SignTorch_HUMMINGBIRD2_
 10
4.072336340692308
 20
3.902335069444444
 30
0.0
 42
-0.036716426399381
  0
VERTEX
  5
415
  8
SignTorch_HUMMINGBIRD2_
 10
4.016664908402618
 20
3.635023091766651
 30
0.0
 42
0.0450733414596098
  0
VERTEX
  5
416
  8
SignTorch_HUMMINGBIRD2_
 10
3.965461340692308
 20
3.366819444444444
 30
0.0
 42
-0.0790737438682545
  0
VERTEX
  5
417
  8
SignTorch_HUMMINGBIRD2_
 10
3.955374432486865
 20
3.328341123630644
 30
0.0
 42
-0.5661014146912428
  0
VERTEX
  5
418
  8
SignTorch_HUMMINGBIRD2_
 10
3.931711340692308
 20
3.325335069444444
 30
0.0
 42
-0.0869776136261601
  0
VERTEX
  5
419
  8
SignTorch_HUMMINGBIRD2_
 10
3.900532715539227
 20
3.383314174696783
 30
0.0
 42
-0.0324783140868262
  0
VERTEX
  5
41A
  8
SignTorch_HUMMINGBIRD2_
 10
3.835023840692308
 20
3.634678819444444
 30
0.0
 42
-0.063532952234316
  0
VERTEX
  5
41B
  8
SignTorch_HUMMINGBIRD2_
 10
3.813855438260437
 20
3.969638528210863
 30
0.0
 42
-0.0828700984895627
  0
VERTEX
  5
41C
  8
SignTorch_HUMMINGBIRD2_
 10
3.872467200067308
 20
4.220930772569444
 30
0.0
 42
-0.0165984451110852
  0
VERTEX
  5
41D
  8
SignTorch_HUMMINGBIRD2_
 10
3.937975440324831
 20
4.364639193775273
 30
0.0
 42
-0.0895176318934998
  0
VERTEX
  5
41E
  8
SignTorch_HUMMINGBIRD2_
 10
3.955586340692308
 20
4.388319444444445
 30
0.0
 42
-0.4716540995735141
  0
VERTEX
  5
41F
  8
SignTorch_HUMMINGBIRD2_
 10
3.969248780855831
 20
4.386552054218094
 30
0.0
 42
-0.0797563531262308
  0
VERTEX
  5
420
  8
SignTorch_HUMMINGBIRD2_
 10
3.995461340692308
 20
4.324819444444445
 30
0.0
 42
-0.0103111303433852
  0
VERTEX
  5
421
  8
SignTorch_HUMMINGBIRD2_
 10
4.021153437865485
 20
4.210862413548971
 30
0.0
 42
0.0086259175462846
  0
SEQEND
  5
422
  8
SignTorch_HUMMINGBIRD2_
  0
POLYLINE
  5
64
  8
SignTorch_HUMMINGBIRD2_
 66
     1
 10
0.0
 20
0.0
 30
0.0
 70
     1
  0
VERTEX
  5
423
  8
SignTorch_HUMMINGBIRD2_
 10
3.629976965692308
 20
2.094960069444444
 30
0.0
 42
-0.3551617542850736
  0
VERTEX
  5
424
  8
SignTorch_HUMMINGBIRD2_
 10
3.66660189488136
 20
2.144010575893212
 30
0.0
 42
-0.310516499013407
  0
VERTEX
  5
425
  8
SignTorch_HUMMINGBIRD2_
 10
3.765836340692308
 20
2.107194444444445
 30
0.0
 42
-0.3347139536461468
  0
VERTEX
  5
426
  8
SignTorch_HUMMINGBIRD2_
 10
3.763020985807151
 20
2.020872584232396
 30
0.0
 42
-0.3831503453965491
  0
VERTEX
  5
427
  8
SignTorch_HUMMINGBIRD2_
 10
3.686211340692308
 20
2.008444444444445
 30
0.0
 42
-0.1061580264441757
  0
VERTEX
  5
428
  8
SignTorch_HUMMINGBIRD2_
 10
3.644257128391942
 20
2.050189863837537
 30
0.0
 42
-0.1346064378020524
  0
SEQEND
  5
429
  8
SignTorch_HUMMINGBIRD2_
  0
POLYLINE
  5
65
  8
SignTorch_HUMMINGBIRD2_
 66
     1
 10
0.0
 20
0.0
 30
0.0
 70
     1
  0
VERTEX
  5
42A
  8
SignTorch_HUMMINGBIRD2_
 10
4.442586340692308
 20
2.755819444444444
 30
0.0
 42
0.0154367621395336
  0
VERTEX
  5
42B
  8
SignTorch_HUMMINGBIRD2_
 10
4.539105954220352
 20
2.741720020972584
 30
0.0
 42
0.0039987398061403
  0
VERTEX
  5
42C
  8
SignTorch_HUMMINGBIRD2_
 10
4.913461340692308
 20
2.701819444444444
 30
0.0
 42
-0.09161698557623
  0
VERTEX
  5
42D
  8
SignTorch_HUMMINGBIRD2_
 10
4.933308668943583
 20
2.696092693232186
 30
0.0
 42
-0.658873491904582
  0
VERTEX
  5
42E
  8
SignTorch_HUMMINGBIRD2_
 10
4.933071814412408
 20
2.692014536976971
 30
0.0
 42
-0.0117790083933728
  0
VERTEX
  5
42F
  8
SignTorch_HUMMINGBIRD2_
 10
4.805833003411355
 20
2.64927627213837
 30
0.0
 42
0.0510613769532442
  0
VERTEX
  5
430
  8
SignTorch_HUMMINGBIRD2_
 10
4.682336340692308
 20
2.596694444444444
 30
0.0
 42
0.0652998156703719
  0
VERTEX
  5
431
  8
SignTorch_HUMMINGBIRD2_
 10
4.506532093160079
 20
2.467168299640355
 30
0.0
 42
0.0638651168089879
  0
VERTEX
  5
432
  8
SignTorch_HUMMINGBIRD2_
 10
4.366539465692307
 20
2.293288194444444
 30
0.0
 42
0.0028067131160126
  0
VERTEX
  5
433
  8
SignTorch_HUMMINGBIRD2_
 10
4.338643255965354
 20
2.247240207535909
 30
0.0
 42
-0.4880251265512687
  0
VERTEX
  5
434
  8
SignTorch_HUMMINGBIRD2_
 10
4.318951575067308
 20
2.244792100694444
 30
0.0
 42
-0.1117759276854594
  0
VERTEX
  5
435
  8
SignTorch_HUMMINGBIRD2_
 10
4.292463256831367
 20
2.286685921718525
 30
0.0
 42
-0.0053088471442134
  0
VERTEX
  5
436
  8
SignTorch_HUMMINGBIRD2_
 10
4.228461340692308
 20
2.473194444444444
 30
0.0
 42
0.0017002360591141
  0
VERTEX
  5
437
  8
SignTorch_HUMMINGBIRD2_
 10
4.144473858266045
 20
2.723820360058969
 30
0.0
 42
-0.0596521549809052
  0
VERTEX
  5
438
  8
SignTorch_HUMMINGBIRD2_
 10
4.130836340692309
 20
2.788569444444444
 30
0.0
 42
-0.4923478586889462
  0
VERTEX
  5
439
  8
SignTorch_HUMMINGBIRD2_
 10
4.15522784994848
 20
2.811029916145783
 30
0.0
 42
-0.0060456487915781
  0
VERTEX
  5
43A
  8
SignTorch_HUMMINGBIRD2_
 10
4.237461340692308
 20
2.795819444444444
 30
0.0
 42
0.0006011684577017
  0
VERTEX
  5
43B
  8
SignTorch_HUMMINGBIRD2_
 10
4.416675656612574
 20
2.760648384534834
 30
0.0
 42
0.0041657142940252
  0
SEQEND
  5
43C
  8
SignTorch_HUMMINGBIRD2_
  0
POLYLINE
  5
66
  8
SignTorch_HUMMINGBIRD2_
 66
     1
 10
0.0
 20
0.0
 30
0.0
 70
     1
  0
VERTEX
  5
43D
  8
SignTorch_HUMMINGBIRD2_
 10
4.819461340692308
 20
2.273819444444444
 30
0.0
 42
-0.0842495805322259
  0
VERTEX
  5
43E
  8
SignTorch_HUMMINGBIRD2_
 10
4.929888001209732
 20
2.26552954816673
 30
0.0
 42
-0.467455975486518
  0
VERTEX
  5
43F
  8
SignTorch_HUMMINGBIRD2_
 10
4.940461340692308
 20
2.243819444444444
 30
0.0
 42
-0.1108834704005119
  0
VERTEX
  5
440
  8
SignTorch_HUMMINGBIRD2_
 10
4.91930914634375
 20
2.215540055040781
 30
0.0
 42
0.0874462672156504
  0
VERTEX
  5
441
  8
SignTorch_HUMMINGBIRD2_
 10
4.896867590692308
 20
2.188272569444444
 30
0.0
 42
0.0536680954782526
  0
VERTEX
  5
442
  8
SignTorch_HUMMINGBIRD2_
 10
4.867634938010849
 20
2.120446291655791
 30
0.0
 42
-0.0276658449152295
  0
VERTEX
  5
443
  8
SignTorch_HUMMINGBIRD2_
 10
4.841961340692309
 20
2.051194444444445
 30
0.0
 42
-0.7141759119752081
  0
VERTEX
  5
444
  8
SignTorch_HUMMINGBIRD2_
 10
4.813652615497139
 20
2.05346099156551
 30
0.0
 42
0.2002308827687761
  0
VERTEX
  5
445
  8
SignTorch_HUMMINGBIRD2_
 10
4.783039465692307
 20
2.094085069444445
 30
0.0
 42
0.5179758948564642
  0
VERTEX
  5
446
  8
SignTorch_HUMMINGBIRD2_
 10
4.705834485058272
 20
2.059043710109237
 30
0.0
 42
0.080579559440955
  0
VERTEX
  5
447
  8
SignTorch_HUMMINGBIRD2_
 10
4.701961340692308
 20
1.921069444444444
 30
0.0
 42
-0.0774598423452782
  0
VERTEX
  5
448
  8
SignTorch_HUMMINGBIRD2_
 10
4.701174729003475
 20
1.885096734790203
 30
0.0
 42
-0.27758638158613
  0
VERTEX
  5
449
  8
SignTorch_HUMMINGBIRD2_
 10
4.683461340692308
 20
1.864819444444444
 30
0.0
 42
-0.0043370693444028
  0
VERTEX
  5
44A
  8
SignTorch_HUMMINGBIRD2_
 10
4.621608642163373
 20
1.845511766686508
 30
0.0
 42
-0.2557904976573605
  0
VERTEX
  5
44B
  8
SignTorch_HUMMINGBIRD2_
 10
4.565070715692308
 20
1.857381944444445
 30
0.0
 42
-0.0528169347207621
  0
VERTEX
  5
44C
  8
SignTorch_HUMMINGBIRD2_
 10
4.510238615373032
 20
1.915365207790507
 30
0.0
 42
-0.023540849775496
  0
VERTEX
  5
44D
  8
SignTorch_HUMMINGBIRD2_
 10
4.408648840692308
 20
2.062319444444444
 30
0.0
 42
-0.1353887114511602
  0
VERTEX
  5
44E
  8
SignTorch_HUMMINGBIRD2_
 10
4.394384203093729
 20
2.110357607506457
 30
0.0
 42
-0.2216435827664888
  0
VERTEX
  5
44F
  8
SignTorch_HUMMINGBIRD2_
 10
4.407148840692308
 20
2.139194444444444
 30
0.0
 42
-0.0721824717635326
  0
VERTEX
  5
450
  8
SignTorch_HUMMINGBIRD2_
 10
4.444527677522758
 20
2.163349811748501
 30
0.0
 42
-0.0174161469655542
  0
VERTEX
  5
451
  8
SignTorch_HUMMINGBIRD2_
 10
4.613961340692308
 20
2.233944444444444
 30
0.0
 42
-0.0420976891093218
  0
VERTEX
  5
452
  8
SignTorch_HUMMINGBIRD2_
 10
4.688510816656748
 20
2.25504311447337
 30
0.0
 42
-0.0246264822130303
  0
SEQEND
  5
453
  8
SignTorch_HUMMINGBIRD2_
  0
POLYLINE
  5
67
  8
SignTorch_HUMMINGBIRD2_
 66
     1
 10
0.0
 20
0.0
 30
0.0
 70
     1
  0
VERTEX
  5
454
  8
SignTorch_HUMMINGBIRD2_
 10
5.506836340692308
 20
2.835194444444444
 30
0.0
 42
0.1315066370134961
  0
VERTEX
  5
455
  8
SignTorch_HUMMINGBIRD2_
 10
5.483091405736172
 20
2.774766560972056
 30
0.0
 42
-0.9332076005078819
  0
VERTEX
  5
456
  8
SignTorch_HUMMINGBIRD2_
 10
5.464070715692309
 20
2.775600694444444
 30
0.0
 42
-0.039680569176243
  0
VERTEX
  5
457
  8
SignTorch_HUMMINGBIRD2_
 10
5.466805123886875
 20
2.826120369234388
 30
0.0
 42
0.0528463343211377
  0
VERTEX
  5
458
  8
SignTorch_HUMMINGBIRD2_
 10
5.468211340692308
 20
2.876694444444444
 30
0.0
 42
-0.54071178802124
  0
VERTEX
  5
459
  8
SignTorch_HUMMINGBIRD2_
 10
5.507813917107771
 20
2.907254449997318
 30
0.0
 42
-0.4830938413041196
  0
VERTEX
  5
45A
  8
SignTorch_HUMMINGBIRD2_
 10
5.525461340692308
 20
2.856819444444444
 30
0.0
 42
-0.0647982668661706
  0
VERTEX
  5
45B
  8
SignTorch_HUMMINGBIRD2_
 10
5.516344704721402
 20
2.845838252303779
 30
0.0
 42
0.0466289417992566
  0
SEQEND
  5
45C
  8
SignTorch_HUMMINGBIRD2_
  0
POLYLINE
  5
68
  8
SignTorch_HUMMINGBIRD2_
 66
     1
 10
0.0
 20
0.0
 30
0.0
 70
     1
  0
VERTEX
  5
45D
  8
SignTorch_HUMMINGBIRD2_
 10
5.554211340692308
 20
2.767444444444444
 30
0.0
 42
-0.4387716417618803
  0
VERTEX
  5
45E
  8
SignTorch_HUMMINGBIRD2_
 10
5.607389732235209
 20
2.779995878491977
 30
0.0
 42
-0.5066043453106398
  0
VERTEX
  5
45F
  8
SignTorch_HUMMINGBIRD2_
 10
5.609273840692308
 20
2.730163194444444
 30
0.0
 42
-0.0860672059961661
  0
VERTEX
  5
460
  8
SignTorch_HUMMINGBIRD2_
 10
5.59367702797167
 20
2.721662017341224
 30
0.0
 42
0.1043725538025071
  0
VERTEX
  5
461
  8
SignTorch_HUMMINGBIRD2_
 10
5.578398840692309
 20
2.712600694444444
 30
0.0
 42
0.05752191034902
  0
VERTEX
  5
462
  8
SignTorch_HUMMINGBIRD2_
 10
5.531967296066374
 20
2.658860369455198
 30
0.0
 42
-0.638557664022078
  0
VERTEX
  5
463
  8
SignTorch_HUMMINGBIRD2_
 10
5.512471106317308
 20
2.662075303819444
 30
0.0
 42
-0.1634210426669044
  0
VERTEX
  5
464
  8
SignTorch_HUMMINGBIRD2_
 10
5.51353553031994
 20
2.682068005375312
 30
0.0
 42
-0.0337352714319165
  0
SEQEND
  5
465
  8
SignTorch_HUMMINGBIRD2_
  0
POLYLINE
  5
69
  8
SignTorch_HUMMINGBIRD2_
 66
     1
 10
0.0
 20
0.0
 30
0.0
 70
     1
  0
VERTEX
  5
466
  8
SignTorch_HUMMINGBIRD2_
 10
5.702461340692308
 20
2.788819444444444
 30
0.0
 42
0.053826326144143
  0
VERTEX
  5
467
  8
SignTorch_HUMMINGBIRD2_
 10
5.756852722601819
 20
2.850607973783805
 30
0.0
 42
-0.5879566570480969
  0
VERTEX
  5
468
  8
SignTorch_HUMMINGBIRD2_
 10
5.813336340692308
 20
2.844569444444444
 30
0.0
 42
-0.2274360874062242
  0
VERTEX
  5
469
  8
SignTorch_HUMMINGBIRD2_
 10
5.811381828647051
 20
2.802114376904791
 30
0.0
 42
-0.2336878519346146
  0
VERTEX
  5
46A
  8
SignTorch_HUMMINGBIRD2_
 10
5.777586340692308
 20
2.778069444444444
 30
0.0
 42
0.153943857776222
  0
VERTEX
  5
46B
  8
SignTorch_HUMMINGBIRD2_
 10
5.691565178001053
 20
2.734940819514787
 30
0.0
 42
-0.7924360158701685
  0
VERTEX
  5
46C
  8
SignTorch_HUMMINGBIRD2_
 10
5.668961340692309
 20
2.749428819444445
 30
0.0
 42
-0.0915905017249384
  0
VERTEX
  5
46D
  8
SignTorch_HUMMINGBIRD2_
 10
5.675581323043273
 20
2.760935088973044
 30
0.0
 42
-0.0311611450637215
  0
SEQEND
  5
46E
  8
SignTorch_HUMMINGBIRD2_
  0
POLYLINE
  5
6A
  8
SignTorch_HUMMINGBIRD2_
 66
     1
 10
0.0
 20
0.0
 30
0.0
 70
     1
  0
VERTEX
  5
46F
  8
SignTorch_HUMMINGBIRD2_
 10
6.049461340692308
 20
1.594819444444444
 30
0.0
 42
-0.0101841340577129
  0
VERTEX
  5
470
  8
SignTorch_HUMMINGBIRD2_
 10
5.715570856210863
 20
1.385697620771018
 30
0.0
 42
-0.0691653683109244
  0
VERTEX
  5
471
  8
SignTorch_HUMMINGBIRD2_
 10
5.661914465692308
 20
1.362944444444445
 30
0.0
 42
-0.6337995927443308
  0
VERTEX
  5
472
  8
SignTorch_HUMMINGBIRD2_
 10
5.633327206356549
 20
1.396613621168407
 30
0.0
 42
0.1556244067972662
  0
VERTEX
  5
473
  8
SignTorch_HUMMINGBIRD2_
 10
5.638486731317308
 20
1.440479600694445
 30
0.0
 42
0.4662883558718497
  0
VERTEX
  5
474
  8
SignTorch_HUMMINGBIRD2_
 10
5.601425578056855
 20
1.461038835787589
 30
0.0
 42
0.0014833391251283
  0
VERTEX
  5
475
  8
SignTorch_HUMMINGBIRD2_
 10
5.497461340692308
 20
1.420819444444444
 30
0.0
 42
-0.1234488081824879
  0
VERTEX
  5
476
  8
SignTorch_HUMMINGBIRD2_
 10
5.29707490577057
 20
1.395347129801136
 30
0.0
 42
-0.1181316443562946
  0
VERTEX
  5
477
  8
SignTorch_HUMMINGBIRD2_
 10
5.099351965692308
 20
1.468506944444445
 30
0.0
 42
-0.0493949392061337
  0
VERTEX
  5
478
  8
SignTorch_HUMMINGBIRD2_
 10
4.968910295089048
 20
1.575787044400839
 30
0.0
 42
-0.3593816314938311
  0
VERTEX
  5
479
  8
SignTorch_HUMMINGBIRD2_
 10
4.966461340692308
 20
1.601819444444444
 30
0.0
 42
-0.1219084531011962
  0
VERTEX
  5
47A
  8
SignTorch_HUMMINGBIRD2_
 10
4.996207441192912
 20
1.628544812071235
 30
0.0
 42
0.1087749211245885
  0
VERTEX
  5
47B
  8
SignTorch_HUMMINGBIRD2_
 10
5.117914465692308
 20
1.732319444444444
 30
0.0
 42
0.1254722477561594
  0
VERTEX
  5
47C
  8
SignTorch_HUMMINGBIRD2_
 10
5.142787109236489
 20
1.791408463191758
 30
0.0
 42
0.3912450722202123
  0
VERTEX
  5
47D
  8
SignTorch_HUMMINGBIRD2_
 10
5.129664465692308
 20
1.810710069444444
 30
0.0
 42
0.2170401069375301
  0
VERTEX
  5
47E
  8
SignTorch_HUMMINGBIRD2_
 10
5.086185746588233
 20
1.801913839855684
 30
0.0
 42
-0.0399737382503166
  0
VERTEX
  5
47F
  8
SignTorch_HUMMINGBIRD2_
 10
4.936476965692308
 20
1.710710069444444
 30
0.0
 42
-0.0684328815723198
  0
VERTEX
  5
480
  8
SignTorch_HUMMINGBIRD2_
 10
4.898697628439947
 20
1.697744169204
 30
0.0
 42
-0.4719577387708007
  0
VERTEX
  5
481
  8
SignTorch_HUMMINGBIRD2_
 10
4.893252356317308
 20
1.702219835069444
 30
0.0
 42
-0.1118872697823429
  0
VERTEX
  5
482
  8
SignTorch_HUMMINGBIRD2_
 10
4.898257133008034
 20
1.724397253094817
 30
0.0
 42
-0.0519541647633427
  0
VERTEX
  5
483
  8
SignTorch_HUMMINGBIRD2_
 10
4.923543371942309
 20
1.765768663194444
 30
0.0
 42
-0.1874918027664996
  0
VERTEX
  5
484
  8
SignTorch_HUMMINGBIRD2_
 10
4.984625342322581
 20
1.803024186435848
 30
0.0
 42
0.059706231054519
  0
VERTEX
  5
485
  8
SignTorch_HUMMINGBIRD2_
 10
5.053055090692308
 20
1.823913194444444
 30
0.0
 42
0.1299698522851185
  0
VERTEX
  5
486
  8
SignTorch_HUMMINGBIRD2_
 10
5.094425470667688
 20
1.856961897815927
 30
0.0
 42
0.4417770679688144
  0
VERTEX
  5
487
  8
SignTorch_HUMMINGBIRD2_
 10
5.086336340692308
 20
1.898194444444444
 30
0.0
 42
0.1271330102831428
  0
VERTEX
  5
488
  8
SignTorch_HUMMINGBIRD2_
 10
5.058819074361396
 20
1.90647116432708
 30
0.0
 42
-0.7265896631064972
  0
VERTEX
  5
489
  8
SignTorch_HUMMINGBIRD2_
 10
5.054398840692308
 20
1.922147569444444
 30
0.0
 42
-0.0555924454416921
  0
VERTEX
  5
48A
  8
SignTorch_HUMMINGBIRD2_
 10
5.109201585172483
 20
1.950529507930972
 30
0.0
 42
0.1494476635729223
  0
VERTEX
  5
48B
  8
SignTorch_HUMMINGBIRD2_
 10
5.303023840692308
 20
2.102042100694444
 30
0.0
 42
0.0572733110430082
  0
VERTEX
  5
48C
  8
SignTorch_HUMMINGBIRD2_
 10
5.339029137579642
 20
2.168550801031708
 30
0.0
 42
-0.1480807987128281
  0
VERTEX
  5
48D
  8
SignTorch_HUMMINGBIRD2_
 10
5.386336340692308
 20
2.227557725694445
 30
0.0
 42
-0.0797375995134664
  0
VERTEX
  5
48E
  8
SignTorch_HUMMINGBIRD2_
 10
5.44627522781784
 20
2.255910804354597
 30
0.0
 42
0.0580235456887364
  0
VERTEX
  5
48F
  8
SignTorch_HUMMINGBIRD2_
 10
5.507383215692308
 20
2.281647569444444
 30
0.0
 42
-0.363882533360773
  0
VERTEX
  5
490
  8
SignTorch_HUMMINGBIRD2_
 10
5.543197513233473
 20
2.275003143786531
 30
0.0
 42
-0.079812809767862
  0
VERTEX
  5
491
  8
SignTorch_HUMMINGBIRD2_
 10
5.570336340692308
 20
2.228694444444444
 30
0.0
 42
-0.0536880111950962
  0
VERTEX
  5
492
  8
SignTorch_HUMMINGBIRD2_
 10
5.61641397487954
 20
2.057914365288797
 30
0.0
 42
-0.0408344760107703
  0
VERTEX
  5
493
  8
SignTorch_HUMMINGBIRD2_
 10
5.644461340692308
 20
1.682819444444444
 30
0.0
 42
0.0125349634601137
  0
VERTEX
  5
494
  8
SignTorch_HUMMINGBIRD2_
 10
5.64711042476595
 20
1.536316618749077
 30
0.0
 42
0.2571663408452391
  0
VERTEX
  5
495
  8
SignTorch_HUMMINGBIRD2_
 10
5.679738440301684
 20
1.482687364366319
 30
0.0
 42
0.4256137859391584
  0
VERTEX
  5
496
  8
SignTorch_HUMMINGBIRD2_
 10
5.756215543747661
 20
1.50500871888628
 30
0.0
 42
0.03865908257679
  0
VERTEX
  5
497
  8
SignTorch_HUMMINGBIRD2_
 10
5.818273840692308
 20
1.649866319444445
 30
0.0
 42
-0.0221070903967367
  0
VERTEX
  5
498
  8
SignTorch_HUMMINGBIRD2_
 10
5.871976738416763
 20
1.787636965276963
 30
0.0
 42
0.0706565161668114
  0
VERTEX
  5
499
  8
SignTorch_HUMMINGBIRD2_
 10
5.946461340692307
 20
2.051819444444444
 30
0.0
 42
0.1157682249301592
  0
VERTEX
  5
49A
  8
SignTorch_HUMMINGBIRD2_
 10
5.924923672914702
 20
2.273669873728515
 30
0.0
 42
-0.0611124948451718
  0
VERTEX
  5
49B
  8
SignTorch_HUMMINGBIRD2_
 10
5.913555090692308
 20
2.328288194444444
 30
0.0
 42
-0.5964729251975937
  0
VERTEX
  5
49C
  8
SignTorch_HUMMINGBIRD2_
 10
5.958701010213295
 20
2.357756477987855
 30
0.0
 42
-0.0300335233635693
  0
VERTEX
  5
49D
  8
SignTorch_HUMMINGBIRD2_
 10
6.056461340692309
 20
2.296819444444444
 30
0.0
 42
-0.0544718482026934
  0
VERTEX
  5
49E
  8
SignTorch_HUMMINGBIRD2_
 10
6.240805717156332
 20
2.133076226417935
 30
0.0
 42
-0.0195671451357518
  0
VERTEX
  5
49F
  8
SignTorch_HUMMINGBIRD2_
 10
6.429211340692309
 20
1.907819444444444
 30
0.0
 42
0.0253188432928576
  0
VERTEX
  5
4A0
  8
SignTorch_HUMMINGBIRD2_
 10
6.457101024889303
 20
1.875243188387504
 30
0.0
 42
-0.2459302512007415
  0
VERTEX
  5
4A1
  8
SignTorch_HUMMINGBIRD2_
 10
6.463461340692308
 20
1.852819444444444
 30
0.0
 42
-0.1915317218559075
  0
VERTEX
  5
4A2
  8
SignTorch_HUMMINGBIRD2_
 10
6.458471256031789
 20
1.845275349748469
 30
0.0
 42
-0.0272905033497504
  0
VERTEX
  5
4A3
  8
SignTorch_HUMMINGBIRD2_
 10
6.406336340692308
 20
1.813069444444444
 30
0.0
 42
0.0125206331399372
  0
VERTEX
  5
4A4
  8
SignTorch_HUMMINGBIRD2_
 10
6.267701772323366
 20
1.732985023204936
 30
0.0
 42
0.0077599883672276
  0
SEQEND
  5
4A5
  8
SignTorch_HUMMINGBIRD2_
  0
POLYLINE
  5
6B
  8
SignTorch_HUMMINGBIRD2_
 66
     1
 10
0.0
 20
0.0
 30
0.0
 70
     1
  0
VERTEX
  5
4A6
  8
SignTorch_HUMMINGBIRD2_
 10
6.569461340692308
 20
1.609819444444444
 30
0.0
 42
-0.0218102186704575
  0
VERTEX
  5
4A7
  8
SignTorch_HUMMINGBIRD2_
 10
6.384144704948715
 20
1.543688186550615
 30
0.0
 42
-0.1530441751932241
  0
VERTEX
  5
4A8
  8
SignTorch_HUMMINGBIRD2_
 10
6.355461340692308
 20
1.543819444444444
 30
0.0
 42
-0.4752248967394886
  0
VERTEX
  5
4A9
  8
SignTorch_HUMMINGBIRD2_
 10
6.349531808803972
 20
1.558873354450416
 30
0.0
 42
-0.0902597285220187
  0
VERTEX
  5
4AA
  8
SignTorch_HUMMINGBIRD2_
 10
6.394238684442308
 20
1.612813585069444
 30
0.0
 42
-0.0262394011454396
  0
VERTEX
  5
4AB
  8
SignTorch_HUMMINGBIRD2_
 10
6.485569530560062
 20
1.681701618076769
 30
0.0
 42
-0.0126584448582195
  0
VERTEX
  5
4AC
  8
SignTorch_HUMMINGBIRD2_
 10
6.685305090692307
 20
1.809288194444444
 30
0.0
 42
-0.029762911355096
  0
VERTEX
  5
4AD
  8
SignTorch_HUMMINGBIRD2_
 10
6.862467803142021
 20
1.902338086962404
 30
0.0
 42
-0.017858330757107
  0
VERTEX
  5
4AE
  8
SignTorch_HUMMINGBIRD2_
 10
7.170961340692308
 20
2.028569444444444
 30
0.0
 42
-0.0358097069179731
  0
VERTEX
  5
4AF
  8
SignTorch_HUMMINGBIRD2_
 10
7.290731806721642
 20
2.06315249351342
 30
0.0
 42
-0.191214886450917
  0
VERTEX
  5
4B0
  8
SignTorch_HUMMINGBIRD2_
 10
7.314558996942309
 20
2.059102647569444
 30
0.0
 42
-0.3991141239583918
  0
VERTEX
  5
4B1
  8
SignTorch_HUMMINGBIRD2_
 10
7.316801325750033
 20
2.050842794725429
 30
0.0
 42
-0.0809789617701818
  0
VERTEX
  5
4B2
  8
SignTorch_HUMMINGBIRD2_
 10
7.294461340692308
 20
2.021819444444444
 30
0.0
 42
-0.0591736809163776
  0
VERTEX
  5
4B3
  8
SignTorch_HUMMINGBIRD2_
 10
7.05464965617124
 20
1.845134963280458
 30
0.0
 42
-0.032607462461394
  0
SEQEND
  5
4B4
  8
SignTorch_HUMMINGBIRD2_
  0
POLYLINE
  5
6C
  8
SignTorch_HUMMINGBIRD2_
 66
     1
 10
0.0
 20
0.0
 30
0.0
 70
     1
  0
VERTEX
  5
4B5
  8
SignTorch_HUMMINGBIRD2_
 10
7.166461340692308
 20
1.738819444444444
 30
0.0
 42
0.0532878749963841
  0
VERTEX
  5
4B6
  8
SignTorch_HUMMINGBIRD2_
 10
7.494985263013572
 20
2.029775033548427
 30
0.0
 42
-0.105631012772891
  0
VERTEX
  5
4B7
  8
SignTorch_HUMMINGBIRD2_
 10
7.584320715692307
 20
2.093663194444444
 30
0.0
 42
-0.0771322936297629
  0
VERTEX
  5
4B8
  8
SignTorch_HUMMINGBIRD2_
 10
7.663562685067836
 20
2.114436374035532
 30
0.0
 42
-0.0326808161729883
  0
VERTEX
  5
4B9
  8
SignTorch_HUMMINGBIRD2_
 10
7.855836340692308
 20
2.121569444444444
 30
0.0
 42
-0.1669040518146807
  0
VERTEX
  5
4BA
  8
SignTorch_HUMMINGBIRD2_
 10
7.877893739768106
 20
2.113291743728607
 30
0.0
 42
-0.2491640009625414
  0
VERTEX
  5
4BB
  8
SignTorch_HUMMINGBIRD2_
 10
7.884133215692307
 20
2.098225694444444
 30
0.0
 42
-0.1062848703439058
  0
VERTEX
  5
4BC
  8
SignTorch_HUMMINGBIRD2_
 10
7.865694658110188
 20
2.040169007920186
 30
0.0
 42
-0.0274452540426688
  0
VERTEX
  5
4BD
  8
SignTorch_HUMMINGBIRD2_
 10
7.682793371942306
 20
1.757421006944444
 30
0.0
 42
-0.1045521630832497
  0
VERTEX
  5
4BE
  8
SignTorch_HUMMINGBIRD2_
 10
7.205646858950805
 20
1.327483490175962
 30
0.0
 42
-0.0896864674130069
  0
VERTEX
  5
4BF
  8
SignTorch_HUMMINGBIRD2_
 10
6.503339758661058
 20
1.074174424913194
 30
0.0
 42
-0.0737925726539971
  0
VERTEX
  5
4C0
  8
SignTorch_HUMMINGBIRD2_
 10
6.12754473699173
 20
1.066677755393149
 30
0.0
 42
-0.1098323274266685
  0
VERTEX
  5
4C1
  8
SignTorch_HUMMINGBIRD2_
 10
6.028494543817308
 20
1.102403428819444
 30
0.0
 42
-0.4234765431555176
  0
VERTEX
  5
4C2
  8
SignTorch_HUMMINGBIRD2_
 10
6.00723097403448
 20
1.204830452430286
 30
0.0
 42
-0.1891302852784257
  0
VERTEX
  5
4C3
  8
SignTorch_HUMMINGBIRD2_
 10
6.176961340692308
 20
1.321069444444444
 30
0.0
 42
-0.0372637918854192
  0
VERTEX
  5
4C4
  8
SignTorch_HUMMINGBIRD2_
 10
6.283211964479031
 20
1.33736077151215
 30
0.0
 42
0.087829911922334
  0
VERTEX
  5
4C5
  8
SignTorch_HUMMINGBIRD2_
 10
6.699086340692308
 20
1.444819444444444
 30
0.0
 42
0.0333702015832567
  0
VERTEX
  5
4C6
  8
SignTorch_HUMMINGBIRD2_
 10
6.844466844117381
 20
1.523259963639828
 30
0.0
 42
0.0142132995019675
  0
SEQEND
  5
4C7
  8
SignTorch_HUMMINGBIRD2_
  0
POLYLINE
  5
6D
  8
SignTorch_HUMMINGBIRD2_
 66
     1
 10
0.0
 20
0.0
 30
0.0
 70
     1
  0
VERTEX
  5
4C8
  8
SignTorch_HUMMINGBIRD2_
 10
7.933086340692308
 20
2.407194444444444
 30
0.0
 42
-0.0665595997344851
  0
VERTEX
  5
4C9
  8
SignTorch_HUMMINGBIRD2_
 10
7.986896500820009
 20
2.441072119550105
 30
0.0
 42
-0.4332321020248469
  0
VERTEX
  5
4CA
  8
SignTorch_HUMMINGBIRD2_
 10
7.997586340692307
 20
2.436694444444444
 30
0.0
 42
-0.1138790498132829
  0
VERTEX
  5
4CB
  8
SignTorch_HUMMINGBIRD2_
 10
7.999894499382672
 20
2.420036581879399
 30
0.0
 42
-0.0232559448809597
  0
VERTEX
  5
4CC
  8
SignTorch_HUMMINGBIRD2_
 10
7.988898840692308
 20
2.339444444444444
 30
0.0
 42
-0.1312566014693323
  0
VERTEX
  5
4CD
  8
SignTorch_HUMMINGBIRD2_
 10
7.968484130598009
 20
2.296430024885293
 30
0.0
 42
-0.1673877461210182
  0
VERTEX
  5
4CE
  8
SignTorch_HUMMINGBIRD2_
 10
7.936023840692307
 20
2.277194444444444
 30
0.0
 42
-0.0370282273254895
  0
VERTEX
  5
4CF
  8
SignTorch_HUMMINGBIRD2_
 10
7.82758855145852
 20
2.263102960946653
 30
0.0
 42
-0.1618527579025069
  0
VERTEX
  5
4D0
  8
SignTorch_HUMMINGBIRD2_
 10
7.802851965692308
 20
2.269835069444444
 30
0.0
 42
-0.4948723759315543
  0
VERTEX
  5
4D1
  8
SignTorch_HUMMINGBIRD2_
 10
7.801520299342129
 20
2.29026715482647
 30
0.0
 42
0.009017335886877
  0
VERTEX
  5
4D2
  8
SignTorch_HUMMINGBIRD2_
 10
7.857461340692307
 20
2.340819444444444
 30
0.0
 42
-0.0081312968159043
  0
VERTEX
  5
4D3
  8
SignTorch_HUMMINGBIRD2_
 10
7.890251243180642
 20
2.370556442917861
 30
0.0
 42
-0.0063855197790541
  0
SEQEND
  5
4D4
  8
SignTorch_HUMMINGBIRD2_
  0
POLYLINE
  5
6E
  8
SignTorch_HUMMINGBIRD2_
 66
     1
 10
0.0
 20
0.0
 30
0.0
 70
     1
  0
VERTEX
  5
4D5
  8
SignTorch_HUMMINGBIRD2_
 10
9.106461340692308
 20
1.120819444444444
 30
0.0
 42
-0.0843848085287486
  0
VERTEX
  5
4D6
  8
SignTorch_HUMMINGBIRD2_
 10
7.958364698483843
 20
0.6966147604343511
 30
0.0
 42
-0.0904409863825267
  0
VERTEX
  5
4D7
  8
SignTorch_HUMMINGBIRD2_
 10
6.815180090692307
 20
0.6907100694444444
 30
0.0
 42
-0.016800049912918
  0
VERTEX
  5
4D8
  8
SignTorch_HUMMINGBIRD2_
 10
6.417773335484566
 20
0.7749254668545309
 30
0.0
 42
-0.0881093985391655
  0
VERTEX
  5
4D9
  8
SignTorch_HUMMINGBIRD2_
 10
6.346461340692308
 20
0.8066163194444445
 30
0.0
 42
-0.1112972842753543
  0
VERTEX
  5
4DA
  8
SignTorch_HUMMINGBIRD2_
 10
6.325508173259394
 20
0.8288763886352862
 30
0.0
 42
-0.3632336899032065
  0
VERTEX
  5
4DB
  8
SignTorch_HUMMINGBIRD2_
 10
6.327211340692308
 20
0.8392100694444444
 30
0.0
 42
-0.1715407951978785
  0
VERTEX
  5
4DC
  8
SignTorch_HUMMINGBIRD2_
 10
6.356871632761882
 20
0.8507429631640765
 30
0.0
 42
0.0442317280191522
  0
VERTEX
  5
4DD
  8
SignTorch_HUMMINGBIRD2_
 10
6.482461340692308
 20
0.8658194444444444
 30
0.0
 42
0.0642874328544952
  0
VERTEX
  5
4DE
  8
SignTorch_HUMMINGBIRD2_
 10
7.170701056068219
 20
1.106396673272144
 30
0.0
 42
0.0794092999821103
  0
VERTEX
  5
4DF
  8
SignTorch_HUMMINGBIRD2_
 10
7.651033606317308
 20
1.451608506944444
 30
0.0
 42
0.0405097788388206
  0
VERTEX
  5
4E0
  8
SignTorch_HUMMINGBIRD2_
 10
7.837193535916449
 20
1.668994427242501
 30
0.0
 42
0.0434601559187834
  0
VERTEX
  5
4E1
  8
SignTorch_HUMMINGBIRD2_
 10
7.974461340692308
 20
1.897819444444444
 30
0.0
 42
0.0514732585736141
  0
VERTEX
  5
4E2
  8
SignTorch_HUMMINGBIRD2_
 10
8.044293806630089
 20
2.08876424281037
 30
0.0
 42
-0.2177787717569252
  0
VERTEX
  5
4E3
  8
SignTorch_HUMMINGBIRD2_
 10
8.076461340692308
 20
2.128819444444444
 30
0.0
 42
-0.2067119326151936
  0
VERTEX
  5
4E4
  8
SignTorch_HUMMINGBIRD2_
 10
8.121826882516261
 20
2.13143707636983
 30
0.0
 42
-0.3191548754293768
  0
VERTEX
  5
4E5
  8
SignTorch_HUMMINGBIRD2_
 10
8.139461340692309
 20
2.105819444444444
 30
0.0
 42
-0.055377244359457
  0
VERTEX
  5
4E6
  8
SignTorch_HUMMINGBIRD2_
 10
8.13026324034314
 20
2.032991924061414
 30
0.0
 42
0.1250263220244824
  0
VERTEX
  5
4E7
  8
SignTorch_HUMMINGBIRD2_
 10
8.133922278192307
 20
1.739950303819445
 30
0.0
 42
0.1423487362070866
  0
VERTEX
  5
4E8
  8
SignTorch_HUMMINGBIRD2_
 10
8.2892484357567
 20
1.483188089266028
 30
0.0
 42
0.1577920542323849
  0
VERTEX
  5
4E9
  8
SignTorch_HUMMINGBIRD2_
 10
8.713086340692307
 20
1.288319444444444
 30
0.0
 42
0.053572721887616
  0
VERTEX
  5
4EA
  8
SignTorch_HUMMINGBIRD2_
 10
9.0599216682315
 20
1.284537491707689
 30
0.0
 42
-0.0568089093782133
  0
VERTEX
  5
4EB
  8
SignTorch_HUMMINGBIRD2_
 10
9.246662512567307
 20
1.281296006944445
 30
0.0
 42
-0.0802115168735402
  0
VERTEX
  5
4EC
  8
SignTorch_HUMMINGBIRD2_
 10
9.300596798503586
 20
1.265146533189869
 30
0.0
 42
-0.3901207233612888
  0
VERTEX
  5
4ED
  8
SignTorch_HUMMINGBIRD2_
 10
9.305461340692307
 20
1.252819444444444
 30
0.0
 42
-0.1328324345694202
  0
VERTEX
  5
4EE
  8
SignTorch_HUMMINGBIRD2_
 10
9.297829584991623
 20
1.242400053026031
 30
0.0
 42
-0.0247053069341842
  0
VERTEX
  5
4EF
  8
SignTorch_HUMMINGBIRD2_
 10
9.242461340692309
 20
1.202444444444444
 30
0.0
 42
-0.0087860123557086
  0
VERTEX
  5
4F0
  8
SignTorch_HUMMINGBIRD2_
 10
9.196457067404294
 20
1.173722030424681
 30
0.0
 42
-0.0045642611244467
  0
SEQEND
  5
4F1
  8
SignTorch_HUMMINGBIRD2_
  0
POLYLINE
  5
6F
  8
SignTorch_HUMMINGBIRD2_
 66
     1
 10
0.0
 20
0.0
 30
0.0
 70
     1
  0
VERTEX
  5
4F2
  8
SignTorch_HUMMINGBIRD2_
 10
8.927320715692307
 20
1.948147569444445
 30
0.0
 42
0.0312393633653201
  0
VERTEX
  5
4F3
  8
SignTorch_HUMMINGBIRD2_
 10
8.783462928974846
 20
2.057935457862078
 30
0.0
 42
0.072556876425075
  0
VERTEX
  5
4F4
  8
SignTorch_HUMMINGBIRD2_
 10
8.630461340692309
 20
2.130819444444445
 30
0.0
 42
-0.0104518556025779
  0
VERTEX
  5
4F5
  8
SignTorch_HUMMINGBIRD2_
 10
8.544733178538015
 20
2.159286063631716
 30
0.0
 42
-0.0606706108013233
  0
VERTEX
  5
4F6
  8
SignTorch_HUMMINGBIRD2_
 10
8.530758215692309
 20
2.166256944444444
 30
0.0
 42
-0.7961784964750928
  0
VERTEX
  5
4F7
  8
SignTorch_HUMMINGBIRD2_
 10
8.537371840911833
 20
2.183939769229776
 30
0.0
 42
-0.0161265733825567
  0
VERTEX
  5
4F8
  8
SignTorch_HUMMINGBIRD2_
 10
8.598461340692308
 20
2.173819444444444
 30
0.0
 42
-0.110684839040045
  0
VERTEX
  5
4F9
  8
SignTorch_HUMMINGBIRD2_
 10
8.828353681427162
 20
2.072010696748219
 30
0.0
 42
-0.0326591942375443
  0
VERTEX
  5
4FA
  8
SignTorch_HUMMINGBIRD2_
 10
9.082461340692307
 20
1.856819444444444
 30
0.0
 42
-0.0253115302119988
  0
VERTEX
  5
4FB
  8
SignTorch_HUMMINGBIRD2_
 10
9.192662382097204
 20
1.739053468038603
 30
0.0
 42
-0.1288134540522879
  0
VERTEX
  5
4FC
  8
SignTorch_HUMMINGBIRD2_
 10
9.206533606317308
 20
1.709997178819444
 30
0.0
 42
-0.7483735964136865
  0
VERTEX
  5
4FD
  8
SignTorch_HUMMINGBIRD2_
 10
9.189608624772031
 20
1.70129186429838
 30
0.0
 42
0.0004859472059725
  0
VERTEX
  5
4FE
  8
SignTorch_HUMMINGBIRD2_
 10
9.145336340692308
 20
1.747694444444444
 30
0.0
 42
0.0161167564097704
  0
VERTEX
  5
4FF
  8
SignTorch_HUMMINGBIRD2_
 10
9.07952039478499
 20
1.812244090050726
 30
0.0
 42
0.0072799713007267
  0
SEQEND
  5
500
  8
SignTorch_HUMMINGBIRD2_
  0
POLYLINE
  5
70
  8
SignTorch_HUMMINGBIRD2_
 66
     1
 10
0.0
 20
0.0
 30
0.0
 70
     1
  0
VERTEX
  5
501
  8
SignTorch_HUMMINGBIRD2_
 10
9.799461340692307
 20
1.653819444444444
 30
0.0
 42
-0.0104013249762768
  0
VERTEX
  5
502
  8
SignTorch_HUMMINGBIRD2_
 10
9.743969817149734
 20
1.596522313920453
 30
0.0
 42
-0.3811306059782693
  0
VERTEX
  5
503
  8
SignTorch_HUMMINGBIRD2_
 10
9.711461340692308
 20
1.594819444444444
 30
0.0
 42
-0.0927156641445318
  0
VERTEX
  5
504
  8
SignTorch_HUMMINGBIRD2_
 10
9.700534028922318
 20
1.607533644870155
 30
0.0
 42
-0.01343472971935
  0
VERTEX
  5
505
  8
SignTorch_HUMMINGBIRD2_
 10
9.645711340692309
 20
1.708319444444444
 30
0.0
 42
0.0070509829143473
  0
VERTEX
  5
506
  8
SignTorch_HUMMINGBIRD2_
 10
9.53039769713899
 20
1.926914265278458
 30
0.0
 42
0.0356185498262213
  0
VERTEX
  5
507
  8
SignTorch_HUMMINGBIRD2_
 10
9.447475012567308
 20
2.056077256944445
 30
0.0
 42
0.0471429425962155
  0
VERTEX
  5
508
  8
SignTorch_HUMMINGBIRD2_
 10
9.24104707793015
 20
2.283907106655347
 30
0.0
 42
0.1323194734872769
  0
VERTEX
  5
509
  8
SignTorch_HUMMINGBIRD2_
 10
8.827211340692308
 20
2.497944444444444
 30
0.0
 42
0.0590706366676681
  0
VERTEX
  5
50A
  8
SignTorch_HUMMINGBIRD2_
 10
8.589595722439846
 20
2.520874068324972
 30
0.0
 42
0.1938138461136571
  0
VERTEX
  5
50B
  8
SignTorch_HUMMINGBIRD2_
 10
8.278226965692308
 20
2.387506944444444
 30
0.0
 42
0.0017081526005029
  0
VERTEX
  5
50C
  8
SignTorch_HUMMINGBIRD2_
 10
8.18142757912776
 20
2.289620688223887
 30
0.0
 42
-0.320885394332466
  0
VERTEX
  5
50D
  8
SignTorch_HUMMINGBIRD2_
 10
8.133094153192308
 20
2.281155381944444
 30
0.0
 42
-0.3776631005281866
  0
VERTEX
  5
50E
  8
SignTorch_HUMMINGBIRD2_
 10
8.118344823153178
 20
2.315947371326661
 30
0.0
 42
0.048342072430346
  0
VERTEX
  5
50F
  8
SignTorch_HUMMINGBIRD2_
 10
8.150711340692308
 20
2.457600694444444
 30
0.0
 42
-0.0094242461678829
  0
VERTEX
  5
510
  8
SignTorch_HUMMINGBIRD2_
 10
8.163569201438913
 20
2.544513898512228
 30
0.0
 42
-0.1720790503770153
  0
VERTEX
  5
511
  8
SignTorch_HUMMINGBIRD2_
 10
8.181961340692308
 20
2.577663194444444
 30
0.0
 42
-0.0990179131257589
  0
VERTEX
  5
512
  8
SignTorch_HUMMINGBIRD2_
 10
8.24901735546855
 20
2.616596734033172
 30
0.0
 42
-0.0400796975585829
  0
VERTEX
  5
513
  8
SignTorch_HUMMINGBIRD2_
 10
8.653726965692309
 20
2.719303819444444
 30
0.0
 42
-0.0389147985643103
  0
VERTEX
  5
514
  8
SignTorch_HUMMINGBIRD2_
 10
8.877376541523065
 20
2.73962795688266
 30
0.0
 42
-0.0517720429732047
  0
VERTEX
  5
515
  8
SignTorch_HUMMINGBIRD2_
 10
9.045680090692308
 20
2.724335069444444
 30
0.0
 42
-0.0193406422495094
  0
VERTEX
  5
516
  8
SignTorch_HUMMINGBIRD2_
 10
9.205353907707513
 20
2.686485997919929
 30
0.0
 42
-0.0227133730720047
  0
VERTEX
  5
517
  8
SignTorch_HUMMINGBIRD2_
 10
9.338148840692309
 20
2.642944444444444
 30
0.0
 42
-0.0540549769288768
  0
VERTEX
  5
518
  8
SignTorch_HUMMINGBIRD2_
 10
9.385066734788323
 20
2.619096203213735
 30
0.0
 42
-0.1510587350445598
  0
VERTEX
  5
519
  8
SignTorch_HUMMINGBIRD2_
 10
9.397332434442308
 20
2.604315538194444
 30
0.0
 42
-0.1045499278061611
  0
VERTEX
  5
51A
  8
SignTorch_HUMMINGBIRD2_
 10
9.413494137352242
 20
2.517706856731798
 30
0.0
 42
0.1504135493015318
  0
VERTEX
  5
51B
  8
SignTorch_HUMMINGBIRD2_
 10
9.509021887567307
 20
2.178784288194444
 30
0.0
 42
0.1540148925001315
  0
VERTEX
  5
51C
  8
SignTorch_HUMMINGBIRD2_
 10
9.679267349653111
 20
2.037744471903492
 30
0.0
 42
0.0475788495745366
  0
VERTEX
  5
51D
  8
SignTorch_HUMMINGBIRD2_
 10
9.951992590692308
 20
1.956022569444444
 30
0.0
 42
-0.0383048499174239
  0
VERTEX
  5
51E
  8
SignTorch_HUMMINGBIRD2_
 10
10.01781950189235
 20
1.937618538755929
 30
0.0
 42
-0.4484974318565213
  0
VERTEX
  5
51F
  8
SignTorch_HUMMINGBIRD2_
 10
10.03046134069231
 20
1.905819444444444
 30
0.0
 42
-0.0651775092873242
  0
VERTEX
  5
520
  8
SignTorch_HUMMINGBIRD2_
 10
10.01467982754587
 20
1.882501484075745
 30
0.0
 42
-0.0093596580168009
  0
VERTEX
  5
521
  8
SignTorch_HUMMINGBIRD2_
 10
9.882461340692307
 20
1.738819444444444
 30
0.0
 42
-0.0072017862422224
  0
VERTEX
  5
522
  8
SignTorch_HUMMINGBIRD2_
 10
9.84081256495678
 20
1.69646471957443
 30
0.0
 42
0.0107026616046655
  0
SEQEND
  5
523
  8
SignTorch_HUMMINGBIRD2_
  0
POLYLINE
  5
71
  8
SignTorch_HUMMINGBIRD2_
 66
     1
 10
0.0
 20
0.0
 30
0.0
 70
     1
  0
VERTEX
  5
524
  8
SignTorch_HUMMINGBIRD2_
 10
10.23146134069231
 20
2.258819444444444
 30
0.0
 42
-0.0066914574229693
  0
VERTEX
  5
525
  8
SignTorch_HUMMINGBIRD2_
 10
10.27760793905442
 20
2.214123957181519
 30
0.0
 42
-0.0342114653022289
  0
VERTEX
  5
526
  8
SignTorch_HUMMINGBIRD2_
 10
10.28589884069231
 20
2.204663194444445
 30
0.0
 42
0.081332543222938
  0
VERTEX
  5
527
  8
SignTorch_HUMMINGBIRD2_
 10
10.29522077159825
 20
2.195851060044286
 30
0.0
 42
-0.3997075632770141
  0
VERTEX
  5
528
  8
SignTorch_HUMMINGBIRD2_
 10
10.29796134069231
 20
2.183319444444444
 30
0.0
 42
-0.3642636018868274
  0
VERTEX
  5
529
  8
SignTorch_HUMMINGBIRD2_
 10
10.29283145097479
 20
2.181579845891827
 30
0.0
 42
-0.0630604599272672
  0
VERTEX
  5
52A
  8
SignTorch_HUMMINGBIRD2_
 10
10.26846134069231
 20
2.194819444444444
 30
0.0
 42
-0.0137147252890912
  0
VERTEX
  5
52B
  8
SignTorch_HUMMINGBIRD2_
 10
10.16332558839602
 20
2.27491759711725
 30
0.0
 42
0.0291514236967455
  0
VERTEX
  5
52C
  8
SignTorch_HUMMINGBIRD2_
 10
9.963586340692308
 20
2.417569444444444
 30
0.0
 42
0.0282727445693667
  0
VERTEX
  5
52D
  8
SignTorch_HUMMINGBIRD2_
 10
9.832042927145915
 20
2.490351781270639
 30
0.0
 42
-0.0770471692723439
  0
VERTEX
  5
52E
  8
SignTorch_HUMMINGBIRD2_
 10
9.765320715692308
 20
2.536256944444444
 30
0.0
 42
-0.7868685023699664
  0
VERTEX
  5
52F
  8
SignTorch_HUMMINGBIRD2_
 10
9.775197376513416
 20
2.553547414522101
 30
0.0
 42
-0.0296407326934728
  0
VERTEX
  5
530
  8
SignTorch_HUMMINGBIRD2_
 10
9.836461340692308
 20
2.531819444444444
 30
0.0
 42
-0.0512118707846192
  0
VERTEX
  5
531
  8
SignTorch_HUMMINGBIRD2_
 10
10.01609493513071
 20
2.433119960384588
 30
0.0
 42
-0.0378401585065824
  0
SEQEND
  5
532
  8
SignTorch_HUMMINGBIRD2_
  0
POLYLINE
  5
72
  8
SignTorch_HUMMINGBIRD2_
 66
     1
 10
0.0
 20
0.0
 30
0.0
 70
     1
  0
VERTEX
  5
533
  8
SignTorch_HUMMINGBIRD2_
 10
10.57846134069231
 20
2.197819444444444
 30
0.0
 42
-0.0423661697478784
  0
VERTEX
  5
534
  8
SignTorch_HUMMINGBIRD2_
 10
10.55513456100857
 20
2.24877456899412
 30
0.0
 42
-0.1909571445036555
  0
VERTEX
  5
535
  8
SignTorch_HUMMINGBIRD2_
 10
10.55746134069231
 20
2.319819444444444
 30
0.0
 42
-0.0343477319179523
  0
VERTEX
  5
536
  8
SignTorch_HUMMINGBIRD2_
 10
10.59934566018096
 20
2.400512141926795
 30
0.0
 42
0.0336802519323683
  0
VERTEX
  5
537
  8
SignTorch_HUMMINGBIRD2_
 10
10.76731314733293
 20
2.723059190538194
 30
0.0
 42
0.0726517869160616
  0
VERTEX
  5
538
  8
SignTorch_HUMMINGBIRD2_
 10
11.07821592336831
 20
3.85644167488819
 30
0.0
 42
0.130489085827165
  0
VERTEX
  5
539
  8
SignTorch_HUMMINGBIRD2_
 10
10.77696134069231
 20
6.044319444444444
 30
0.0
 42
-0.0141709932917683
  0
VERTEX
  5
53A
  8
SignTorch_HUMMINGBIRD2_
 10
10.7476792266924
 20
6.120264718320606
 30
0.0
 42
-0.3717091862063409
  0
VERTEX
  5
53B
  8
SignTorch_HUMMINGBIRD2_
 10
10.76019571569231
 20
6.152335069444444
 30
0.0
 42
-0.0442991721773903
  0
VERTEX
  5
53C
  8
SignTorch_HUMMINGBIRD2_
 10
10.82581306343827
 20
6.17995318881134
 30
0.0
 42
0.0953493885503678
  0
VERTEX
  5
53D
  8
SignTorch_HUMMINGBIRD2_
 10
10.88829141881731
 20
6.214083116319445
 30
0.0
 42
0.0757633880808655
  0
VERTEX
  5
53E
  8
SignTorch_HUMMINGBIRD2_
 10
11.04051978934053
 20
6.384370958026683
 30
0.0
 42
0.2688471627277611
  0
VERTEX
  5
53F
  8
SignTorch_HUMMINGBIRD2_
 10
11.04303946569231
 20
6.431913194444444
 30
0.0
 42
-0.0474618328908957
  0
VERTEX
  5
540
  8
SignTorch_HUMMINGBIRD2_
 10
11.02954504554323
 20
6.465948342665132
 30
0.0
 42
-0.201319272552444
  0
VERTEX
  5
541
  8
SignTorch_HUMMINGBIRD2_
 10
11.03057071569231
 20
6.474850694444443
 30
0.0
 42
-0.1095041108702029
  0
VERTEX
  5
542
  8
SignTorch_HUMMINGBIRD2_
 10
11.05840466867541
 20
6.505942045579233
 30
0.0
 42
0.0417038628279425
  0
VERTEX
  5
543
  8
SignTorch_HUMMINGBIRD2_
 10
11.18521134069231
 20
6.614022569444444
 30
0.0
 42
-0.0012974015529593
  0
VERTEX
  5
544
  8
SignTorch_HUMMINGBIRD2_
 10
11.31188819688211
 20
6.741006070527816
 30
0.0
 42
0.23013947489242
  0
VERTEX
  5
545
  8
SignTorch_HUMMINGBIRD2_
 10
11.32690665319231
 20
6.784233506944444
 30
0.0
 42
0.2169712843271705
  0
VERTEX
  5
546
  8
SignTorch_HUMMINGBIRD2_
 10
11.3079017590726
 20
6.815558034770012
 30
0.0
 42
-0.5489940698096194
  0
VERTEX
  5
547
  8
SignTorch_HUMMINGBIRD2_
 10
11.30905509069231
 20
6.852178819444444
 30
0.0
 42
-0.0539363861794801
  0
VERTEX
  5
548
  8
SignTorch_HUMMINGBIRD2_
 10
11.39118371389266
 20
6.889586921813995
 30
0.0
 42
0.1736524174108352
  0
VERTEX
  5
549
  8
SignTorch_HUMMINGBIRD2_
 10
11.52285782506731
 20
6.992522569444445
 30
0.0
 42
0.1924585490723186
  0
VERTEX
  5
54A
  8
SignTorch_HUMMINGBIRD2_
 10
11.5354946310917
 20
7.060749243217102
 30
0.0
 42
0.2007136828306924
  0
VERTEX
  5
54B
  8
SignTorch_HUMMINGBIRD2_
 10
11.49818009069231
 20
7.116085069444443
 30
0.0
 42
0.086882364039705
  0
VERTEX
  5
54C
  8
SignTorch_HUMMINGBIRD2_
 10
11.43523389749152
 20
7.143295029394841
 30
0.0
 42
0.0252555766374987
  0
VERTEX
  5
54D
  8
SignTorch_HUMMINGBIRD2_
 10
10.95080704381731
 20
7.233542100694444
 30
0.0
 42
0.0176923105779361
  0
VERTEX
  5
54E
  8
SignTorch_HUMMINGBIRD2_
 10
10.78838437106057
 20
7.249560500286091
 30
0.0
 42
0.0301207981246149
  0
VERTEX
  5
54F
  8
SignTorch_HUMMINGBIRD2_
 10
10.69246134069231
 20
7.249819444444443
 30
0.0
 42
-0.0017514771222525
  0
VERTEX
  5
550
  8
SignTorch_HUMMINGBIRD2_
 10
10.39918025459885
 20
7.233960693534379
 30
0.0
 42
0.0563698569581559
  0
VERTEX
  5
551
  8
SignTorch_HUMMINGBIRD2_
 10
10.16746134069231
 20
7.195819444444445
 30
0.0
 42
-0.0687540206769746
  0
VERTEX
  5
552
  8
SignTorch_HUMMINGBIRD2_
 10
10.09066262514199
 20
7.185116863128065
 30
0.0
 42
-0.1740448172935137
  0
VERTEX
  5
553
  8
SignTorch_HUMMINGBIRD2_
 10
10.06108634069231
 20
7.195694444444445
 30
0.0
 42
-0.0469026024366478
  0
VERTEX
  5
554
  8
SignTorch_HUMMINGBIRD2_
 10
10.01065741319907
 20
7.245765402517097
 30
0.0
 42
0.0288334200265297
  0
VERTEX
  5
555
  8
SignTorch_HUMMINGBIRD2_
 10
9.816324133661055
 20
7.45316929796007
 30
0.0
 42
0.0908205755809325
  0
VERTEX
  5
556
  8
SignTorch_HUMMINGBIRD2_
 10
8.603996080542197
 20
8.245936369533059
 30
0.0
 42
0.1816557752321494
  0
VERTEX
  5
557
  8
SignTorch_HUMMINGBIRD2_
 10
6.044277502801683
 20
8.344765245225695
 30
0.0
 42
0.085966165392575
  0
VERTEX
  5
558
  8
SignTorch_HUMMINGBIRD2_
 10
4.969020931873954
 20
7.768037361378958
 30
0.0
 42
0.082619538737098
  0
VERTEX
  5
559
  8
SignTorch_HUMMINGBIRD2_
 10
4.111461340692308
 20
6.832819444444444
 30
0.0
 42
0.0364117330841103
  0
VERTEX
  5
55A
  8
SignTorch_HUMMINGBIRD2_
 10
4.070875174025129
 20
6.75930673132265
 30
0.0
 42
-0.3962833363488266
  0
VERTEX
  5
55B
  8
SignTorch_HUMMINGBIRD2_
 10
4.027967200067308
 20
6.741942491319444
 30
0.0
 42
-0.0924645455265267
  0
VERTEX
  5
55C
  8
SignTorch_HUMMINGBIRD2_
 10
3.972677594376421
 20
6.776181214610491
 30
0.0
 42
0.1048694941206268
  0
VERTEX
  5
55D
  8
SignTorch_HUMMINGBIRD2_
 10
3.748234778192308
 20
6.907653428819444
 30
0.0
 42
0.1366085027289938
  0
VERTEX
  5
55E
  8
SignTorch_HUMMINGBIRD2_
 10
3.484239758454268
 20
6.920700200895745
 30
0.0
 42
0.3117960008432757
  0
VERTEX
  5
55F
  8
SignTorch_HUMMINGBIRD2_
 10
3.445117590692308
 20
6.878210069444444
 30
0.0
 42
0.1210689250794093
  0
VERTEX
  5
560
  8
SignTorch_HUMMINGBIRD2_
 10
3.452107914211213
 20
6.809438826304659
 30
0.0
 42
0.0472131219109769
  0
VERTEX
  5
561
  8
SignTorch_HUMMINGBIRD2_
 10
3.526148840692308
 20
6.650776475694444
 30
0.0
 42
-0.0576776512378916
  0
VERTEX
  5
562
  8
SignTorch_HUMMINGBIRD2_
 10
3.58820048526403
 20
6.510223455461871
 30
0.0
 42
-0.0587860358495718
  0
VERTEX
  5
563
  8
SignTorch_HUMMINGBIRD2_
 10
3.615648840692308
 20
6.361979600694443
 30
0.0
 42
-0.0250156856003236
  0
VERTEX
  5
564
  8
SignTorch_HUMMINGBIRD2_
 10
3.617663983906285
 20
6.233025076730177
 30
0.0
 42
0.0861428103915781
  0
VERTEX
  5
565
  8
SignTorch_HUMMINGBIRD2_
 10
3.650461340692308
 20
5.995944444444444
 30
0.0
 42
-0.0362417367832366
  0
VERTEX
  5
566
  8
SignTorch_HUMMINGBIRD2_
 10
3.666666158609296
 20
5.928818070864113
 30
0.0
 42
-0.0806597902907505
  0
VERTEX
  5
567
  8
SignTorch_HUMMINGBIRD2_
 10
3.666773840692308
 20
5.897629991319444
 30
0.0
 42
-0.0476131224675552
  0
VERTEX
  5
568
  8
SignTorch_HUMMINGBIRD2_
 10
3.650002623736202
 20
5.83267335222315
 30
0.0
 42
0.0273260943594594
  0
VERTEX
  5
569
  8
SignTorch_HUMMINGBIRD2_
 10
3.572461340692308
 20
5.575819444444444
 30
0.0
 42
0.0502398811421694
  0
VERTEX
  5
56A
  8
SignTorch_HUMMINGBIRD2_
 10
3.457822094634279
 20
4.751316332188378
 30
0.0
 42
0.0654485254950989
  0
VERTEX
  5
56B
  8
SignTorch_HUMMINGBIRD2_
 10
3.565225012567308
 20
3.599171006944444
 30
0.0
 42
0.0521264909974688
  0
VERTEX
  5
56C
  8
SignTorch_HUMMINGBIRD2_
 10
3.809542264146866
 20
2.880784496234507
 30
0.0
 42
0.0094558531661219
  0
VERTEX
  5
56D
  8
SignTorch_HUMMINGBIRD2_
 10
4.086461340692308
 20
2.308819444444444
 30
0.0
 42
-0.0160284781802779
  0
VERTEX
  5
56E
  8
SignTorch_HUMMINGBIRD2_
 10
4.123946417682575
 20
2.228728539613257
 30
0.0
 42
-0.4706390872573634
  0
VERTEX
  5
56F
  8
SignTorch_HUMMINGBIRD2_
 10
4.112961340692308
 20
2.207319444444444
 30
0.0
 42
0.1403725273541277
  0
VERTEX
  5
570
  8
SignTorch_HUMMINGBIRD2_
 10
4.090785684795563
 20
2.195323328961814
 30
0.0
 42
0.1863769917038018
  0
VERTEX
  5
571
  8
SignTorch_HUMMINGBIRD2_
 10
4.082797278192308
 20
2.177788194444445
 30
0.0
 42
0.0789738964261272
  0
VERTEX
  5
572
  8
SignTorch_HUMMINGBIRD2_
 10
4.088471126503571
 20
2.120473769150598
 30
0.0
 42
-0.5713320110219505
  0
VERTEX
  5
573
  8
SignTorch_HUMMINGBIRD2_
 10
4.077492590692308
 20
2.109417100694444
 30
0.0
 42
-0.0916181777409246
  0
VERTEX
  5
574
  8
SignTorch_HUMMINGBIRD2_
 10
4.04487124615143
 20
2.124454161378213
 30
0.0
 42
0.0287178196852987
  0
VERTEX
  5
575
  8
SignTorch_HUMMINGBIRD2_
 10
3.923117590692308
 20
2.200319444444444
 30
0.0
 42
-0.0725918126528007
  0
VERTEX
  5
576
  8
SignTorch_HUMMINGBIRD2_
 10
3.884693742767424
 20
2.229212070485846
 30
0.0
 42
-0.1374698158294012
  0
VERTEX
  5
577
  8
SignTorch_HUMMINGBIRD2_
 10
3.872180090692309
 20
2.251694444444444
 30
0.0
 42
-0.0328544487702125
  0
VERTEX
  5
578
  8
SignTorch_HUMMINGBIRD2_
 10
3.857992748306825
 20
2.334851171042057
 30
0.0
 42
0.0816105496902478
  0
VERTEX
  5
579
  8
SignTorch_HUMMINGBIRD2_
 10
3.816805090692308
 20
2.485928819444444
 30
0.0
 42
0.0832648284949769
  0
VERTEX
  5
57A
  8
SignTorch_HUMMINGBIRD2_
 10
3.731564730551529
 20
2.611826446859593
 30
0.0
 42
0.6108644067867266
  0
VERTEX
  5
57B
  8
SignTorch_HUMMINGBIRD2_
 10
3.704461340692308
 20
2.603819444444444
 30
0.0
 42
0.1363150436406443
  0
VERTEX
  5
57C
  8
SignTorch_HUMMINGBIRD2_
 10
3.709279221681293
 20
2.546705886285524
 30
0.0
 42
-0.0456904828270756
  0
VERTEX
  5
57D
  8
SignTorch_HUMMINGBIRD2_
 10
3.768867590692308
 20
2.326085069444444
 30
0.0
 42
-0.1074256861783222
  0
VERTEX
  5
57E
  8
SignTorch_HUMMINGBIRD2_
 10
3.766785523139583
 20
2.276002211569536
 30
0.0
 42
-0.2982366179989727
  0
VERTEX
  5
57F
  8
SignTorch_HUMMINGBIRD2_
 10
3.752373450067308
 20
2.262960069444444
 30
0.0
 42
-0.1189159161118606
  0
VERTEX
  5
580
  8
SignTorch_HUMMINGBIRD2_
 10
3.693367024053204
 20
2.267741510225573
 30
0.0
 42
0.202522428666889
  0
VERTEX
  5
581
  8
SignTorch_HUMMINGBIRD2_
 10
3.583939856317308
 20
2.258741319444444
 30
0.0
 42
0.2509895557670905
  0
VERTEX
  5
582
  8
SignTorch_HUMMINGBIRD2_
 10
3.51365799144273
 20
2.155407190296223
 30
0.0
 42
0.3015951988213946
  0
VERTEX
  5
583
  8
SignTorch_HUMMINGBIRD2_
 10
3.642195715692308
 20
1.908741319444444
 30
0.0
 42
0.1660361112448615
  0
VERTEX
  5
584
  8
SignTorch_HUMMINGBIRD2_
 10
3.769571187776199
 20
1.886154338755535
 30
0.0
 42
0.3157075741306025
  0
VERTEX
  5
585
  8
SignTorch_HUMMINGBIRD2_
 10
3.869836340692308
 20
1.982444444444444
 30
0.0
 42
-0.0082432858391568
  0
VERTEX
  5
586
  8
SignTorch_HUMMINGBIRD2_
 10
3.882247696398542
 20
2.040533338517709
 30
0.0
 42
-0.3344908962382611
  0
VERTEX
  5
587
  8
SignTorch_HUMMINGBIRD2_
 10
3.900461340692308
 20
2.055819444444444
 30
0.0
 42
-0.1709903637823349
  0
VERTEX
  5
588
  8
SignTorch_HUMMINGBIRD2_
 10
3.944900779849466
 20
2.042748640236313
 30
0.0
 42
-0.0417092189725732
  0
VERTEX
  5
589
  8
SignTorch_HUMMINGBIRD2_
 10
4.146414465692308
 20
1.870194444444444
 30
0.0
 42
-0.0698882046068783
  0
VERTEX
  5
58A
  8
SignTorch_HUMMINGBIRD2_
 10
4.267789033947653
 20
1.70708796595114
 30
0.0
 42
0.0891406013217066
  0
VERTEX
  5
58B
  8
SignTorch_HUMMINGBIRD2_
 10
4.336461340692308
 20
1.621819444444444
 30
0.0
 42
0.1723192513262803
  0
VERTEX
  5
58C
  8
SignTorch_HUMMINGBIRD2_
 10
4.357302907049434
 20
1.613647060811891
 30
0.0
 42
0.1713672885221518
  0
VERTEX
  5
58D
  8
SignTorch_HUMMINGBIRD2_
 10
4.378754309442308
 20
1.620448350694444
 30
0.0
 42
-0.4329147990273003
  0
VERTEX
  5
58E
  8
SignTorch_HUMMINGBIRD2_
 10
4.432105137078881
 20
1.611254972711517
 30
0.0
 42
0.0249848790963605
  0
VERTEX
  5
58F
  8
SignTorch_HUMMINGBIRD2_
 10
4.552789465692308
 20
1.446772569444445
 30
0.0
 42
-0.0087853003980626
  0
VERTEX
  5
590
  8
SignTorch_HUMMINGBIRD2_
 10
4.690248129406053
 20
1.271616659502922
 30
0.0
 42
-0.1382601914066516
  0
VERTEX
  5
591
  8
SignTorch_HUMMINGBIRD2_
 10
4.726106604364182
 20
1.179993028428819
 30
0.0
 42
-0.181675477746476
  0
VERTEX
  5
592
  8
SignTorch_HUMMINGBIRD2_
 10
4.705850396544808
 20
1.10420412764013
 30
0.0
 42
0.453251888606274
  0
VERTEX
  5
593
  8
SignTorch_HUMMINGBIRD2_
 10
4.715619543817308
 20
1.062577256944444
 30
0.0
 42
0.19238964150322
  0
VERTEX
  5
594
  8
SignTorch_HUMMINGBIRD2_
 10
4.816447330683049
 20
1.051539243235303
 30
0.0
 42
0.2380497180293752
  0
VERTEX
  5
595
  8
SignTorch_HUMMINGBIRD2_
 10
4.878215246942307
 20
1.107768663194444
 30
0.0
 42
0.116711682050971
  0
VERTEX
  5
596
  8
SignTorch_HUMMINGBIRD2_
 10
4.892111659418035
 20
1.212009743002981
 30
0.0
 42
0.0684388292775277
  0
VERTEX
  5
597
  8
SignTorch_HUMMINGBIRD2_
 10
4.850461340692307
 20
1.384819444444444
 30
0.0
 42
-0.0145633544406644
  0
VERTEX
  5
598
  8
SignTorch_HUMMINGBIRD2_
 10
4.837222110011411
 20
1.421769828975847
 30
0.0
 42
-0.5671430886376294
  0
VERTEX
  5
599
  8
SignTorch_HUMMINGBIRD2_
 10
4.844459387567309
 20
1.430073350694445
 30
0.0
 42
-0.1590310167117772
  0
VERTEX
  5
59A
  8
SignTorch_HUMMINGBIRD2_
 10
4.866481489427527
 20
1.418232385066
 30
0.0
 42
0.0243864638989306
  0
VERTEX
  5
59B
  8
SignTorch_HUMMINGBIRD2_
 10
4.938461340692307
 20
1.349819444444444
 30
0.0
 42
0.0396841950841122
  0
VERTEX
  5
59C
  8
SignTorch_HUMMINGBIRD2_
 10
5.40032963557687
 20
1.011713609737151
 30
0.0
 42
0.0381866009627984
  0
VERTEX
  5
59D
  8
SignTorch_HUMMINGBIRD2_
 10
5.928920325067307
 20
0.7390421006944444
 30
0.0
 42
0.1147238849067911
  0
VERTEX
  5
59E
  8
SignTorch_HUMMINGBIRD2_
 10
7.588398920605257
 20
0.4516882224086692
 30
0.0
 42
0.1167253366881881
  0
VERTEX
  5
59F
  8
SignTorch_HUMMINGBIRD2_
 10
9.175590246942306
 20
0.9242706163194443
 30
0.0
 42
0.0299044717161731
  0
VERTEX
  5
5A0
  8
SignTorch_HUMMINGBIRD2_
 10
9.382231737275303
 20
1.060122495686355
 30
0.0
 42
-0.0163188464421693
  0
VERTEX
  5
5A1
  8
SignTorch_HUMMINGBIRD2_
 10
9.491476965692307
 20
1.136270616319444
 30
0.0
 42
-0.0881460051824344
  0
VERTEX
  5
5A2
  8
SignTorch_HUMMINGBIRD2_
 10
9.538798280044542
 20
1.156292430768032
 30
0.0
 42
-0.1645127058246497
  0
VERTEX
  5
5A3
  8
SignTorch_HUMMINGBIRD2_
 10
9.566711340692308
 20
1.153444444444444
 30
0.0
 42
-0.0953182733551592
  0
VERTEX
  5
5A4
  8
SignTorch_HUMMINGBIRD2_
 10
9.635973781081121
 20
1.104222303038674
 30
0.0
 42
0.112124215469864
  0
VERTEX
  5
5A5
  8
SignTorch_HUMMINGBIRD2_
 10
9.767564856317307
 20
1.017141710069444
 30
0.0
 42
0.1566206168386673
  0
VERTEX
  5
5A6
  8
SignTorch_HUMMINGBIRD2_
 10
9.81742704248377
 20
1.014618560001542
 30
0.0
 42
0.230237054001816
  0
VERTEX
  5
5A7
  8
SignTorch_HUMMINGBIRD2_
 10
9.843836340692306
 20
1.037444444444444
 30
0.0
 42
0.1295667665837213
  0
VERTEX
  5
5A8
  8
SignTorch_HUMMINGBIRD2_
 10
9.852692799321007
 20
1.096942997676815
 30
0.0
 42
0.0311240172759443
  0
VERTEX
  5
5A9
  8
SignTorch_HUMMINGBIRD2_
 10
9.810461340692308
 20
1.339819444444444
 30
0.0
 42
-0.2662191337805448
  0
VERTEX
  5
5AA
  8
SignTorch_HUMMINGBIRD2_
 10
9.829603014397561
 20
1.404917845424153
 30
0.0
 42
-0.0031131517826982
  0
VERTEX
  5
5AB
  8
SignTorch_HUMMINGBIRD2_
 10
9.885461340692308
 20
1.457819444444445
 30
0.0
 42
0.0448358340014001
  0
VERTEX
  5
5AC
  8
SignTorch_HUMMINGBIRD2_
 10
10.18627044603424
 20
1.794497066198359
 30
0.0
 42
-0.0591548766917304
  0
VERTEX
  5
5AD
  8
SignTorch_HUMMINGBIRD2_
 10
10.26385196569231
 20
1.876491319444444
 30
0.0
 42
-0.1985379362765507
  0
VERTEX
  5
5AE
  8
SignTorch_HUMMINGBIRD2_
 10
10.3226850532748
 20
1.894877204505797
 30
0.0
 42
0.0539327497425081
  0
VERTEX
  5
5AF
  8
SignTorch_HUMMINGBIRD2_
 10
10.56721134069231
 20
1.899444444444444
 30
0.0
 42
0.0548299452682808
  0
VERTEX
  5
5B0
  8
SignTorch_HUMMINGBIRD2_
 10
10.66700024782672
 20
1.92344043985889
 30
0.0
 42
0.3649545483741005
  0
VERTEX
  5
5B1
  8
SignTorch_HUMMINGBIRD2_
 10
10.69697696569231
 20
1.975147569444444
 30
0.0
 42
0.0896501459901284
  0
VERTEX
  5
5B2
  8
SignTorch_HUMMINGBIRD2_
 10
10.6794408072909
 20
2.022700010016921
 30
0.0
 42
-0.0045322702066628
  0
SEQEND
  5
5B3
  8
SignTorch_HUMMINGBIRD2_
  0
ENDSEC
  0
EOF
