  0
SECTION
  2
HEADER
  9
$ACADVER
  1
AC1009
  9
$DWGCODEPAGE
  3
ansi_1252
  9
$INSBASE
 10
0.0
 20
0.0
 30
0.0
  9
$EXTMIN
 10
3.679946866953163
 20
0.6680909338939074
 30
0.0
  9
$EXTMAX
 10
11.29855379052487
 20
8.31922495969109
 30
0.0
  9
$LIMMIN
 10
0.0
 20
0.0
  9
$LIMMAX
 10
12.0
 20
9.0
  9
$ORTHOMODE
 70
     0
  9
$REGENMODE
 70
     1
  9
$FILLMODE
 70
     1
  9
$QTEXTMODE
 70
     0
  9
$MIRRTEXT
 70
     1
  9
$DRAGMODE
 70
     2
  9
$LTSCALE
 40
1.0
  9
$OSMODE
 70
    37
  9
$ATTMODE
 70
     1
  9
$TEXTSIZE
 40
0.2
  9
$TRACEWID
 40
0.05
  9
$TEXTSTYLE
  7
STANDARD
  9
$CLAYER
  8
0
  9
$CELTYPE
  6
BYLAYER
  9
$CECOLOR
 62
   256
  9
$DIMSCALE
 40
1.0
  9
$DIMASZ
 40
0.18
  9
$DIMEXO
 40
0.0625
  9
$DIMDLI
 40
0.38
  9
$DIMRND
 40
0.0
  9
$DIMDLE
 40
0.0
  9
$DIMEXE
 40
0.18
  9
$DIMTP
 40
0.0
  9
$DIMTM
 40
0.0
  9
$DIMTXT
 40
0.18
  9
$DIMCEN
 40
0.09
  9
$DIMTSZ
 40
0.0
  9
$DIMTOL
 70
     0
  9
$DIMLIM
 70
     0
  9
$DIMTIH
 70
     1
  9
$DIMTOH
 70
     1
  9
$DIMSE1
 70
     0
  9
$DIMSE2
 70
     0
  9
$DIMTAD
 70
     0
  9
$DIMZIN
 70
     0
  9
$DIMBLK
  1

  9
$DIMASO
 70
     1
  9
$DIMSHO
 70
     1
  9
$DIMPOST
  1

  9
$DIMAPOST
  1

  9
$DIMALT
 70
     0
  9
$DIMALTD
 70
     2
  9
$DIMALTF
 40
25.4
  9
$DIMLFAC
 40
1.0
  9
$DIMTOFL
 70
     0
  9
$DIMTVP
 40
0.0
  9
$DIMTIX
 70
     0
  9
$DIMSOXD
 70
     0
  9
$DIMSAH
 70
     0
  9
$DIMBLK1
  1

  9
$DIMBLK2
  1

  9
$DIMSTYLE
  2
STANDARD
  9
$DIMCLRD
 70
     0
  9
$DIMCLRE
 70
     0
  9
$DIMCLRT
 70
     0
  9
$DIMTFAC
 40
1.0
  9
$DIMGAP
 40
0.09
  9
$LUNITS
 70
     2
  9
$LUPREC
 70
     4
  9
$SKETCHINC
 40
0.1
  9
$FILLETRAD
 40
0.5
  9
$AUNITS
 70
     0
  9
$AUPREC
 70
     0
  9
$MENU
  1
.
  9
$ELEVATION
 40
0.0
  9
$PELEVATION
 40
0.0
  9
$THICKNESS
 40
0.0
  9
$LIMCHECK
 70
     0
  9
$CHAMFERA
 40
0.5
  9
$CHAMFERB
 40
0.5
  9
$SKPOLY
 70
     0
  9
$TDCREATE
 40
2454910.5
  9
$TDUPDATE
 40
2455562.335822118
  9
$TDINDWG
 40
0.0000000116
  9
$TDUSRTIMER
 40
0.0000000116
  9
$USRTIMER
 70
     1
  9
$ANGBASE
 50
0.0
  9
$ANGDIR
 70
     0
  9
$PDMODE
 70
     0
  9
$PDSIZE
 40
0.0
  9
$PLINEWID
 40
0.0
  9
$COORDS
 70
     1
  9
$SPLFRAME
 70
     0
  9
$SPLINETYPE
 70
     6
  9
$SPLINESEGS
 70
     8
  9
$ATTDIA
 70
     0
  9
$ATTREQ
 70
     1
  9
$HANDLING
 70
     1
  9
$HANDSEED
  5
1A2
  9
$SURFTAB1
 70
     6
  9
$SURFTAB2
 70
     6
  9
$SURFTYPE
 70
     6
  9
$SURFU
 70
     6
  9
$SURFV
 70
     6
  9
$UCSNAME
  2

  9
$UCSORG
 10
0.0
 20
0.0
 30
0.0
  9
$UCSXDIR
 10
1.0
 20
0.0
 30
0.0
  9
$UCSYDIR
 10
0.0
 20
1.0
 30
0.0
  9
$PUCSNAME
  2

  9
$PUCSORG
 10
0.0
 20
0.0
 30
0.0
  9
$PUCSXDIR
 10
1.0
 20
0.0
 30
0.0
  9
$PUCSYDIR
 10
0.0
 20
1.0
 30
0.0
  9
$USERI1
 70
     0
  9
$USERI2
 70
     0
  9
$USERI3
 70
     0
  9
$USERI4
 70
     0
  9
$USERI5
 70
     0
  9
$USERR1
 40
0.0
  9
$USERR2
 40
0.0
  9
$USERR3
 40
0.0
  9
$USERR4
 40
0.0
  9
$USERR5
 40
0.0
  9
$WORLDVIEW
 70
     1
  9
$SHADEDGE
 70
     3
  9
$SHADEDIF
 70
    70
  9
$TILEMODE
 70
     1
  9
$MAXACTVP
 70
    64
  9
$PLIMCHECK
 70
     0
  9
$PEXTMIN
 10
1.000000000000000E+20
 20
1.000000000000000E+20
 30
1.000000000000000E+20
  9
$PEXTMAX
 10
-1.000000000000000E+20
 20
-1.000000000000000E+20
 30
-1.000000000000000E+20
  9
$PLIMMIN
 10
0.0
 20
0.0
  9
$PLIMMAX
 10
12.0
 20
9.0
  9
$UNITMODE
 70
     0
  9
$VISRETAIN
 70
     1
  9
$PLINEGEN
 70
     0
  9
$PSLTSCALE
 70
     1
  0
ENDSEC
  0
SECTION
  2
TABLES
  0
TABLE
  2
VPORT
 70
     1
  0
VPORT
  2
*ACTIVE
 70
     0
 10
0.0
 20
0.0
 11
1.0
 21
1.0
 12
10.42990654205607
 22
4.5
 13
0.0
 23
0.0
 14
0.5
 24
0.5
 15
0.5
 25
0.5
 16
0.0
 26
0.0
 36
1.0
 17
0.0
 27
0.0
 37
0.0
 40
9.0
 41
1.972972972850329
 42
50.0
 43
0.0
 44
0.0
 50
0.0
 51
0.0
 71
     0
 72
   100
 73
     1
 74
     3
 75
     0
 76
     0
 77
     0
 78
     0
  0
ENDTAB
  0
TABLE
  2
LTYPE
 70
     2
  0
LTYPE
  2
CONTINUOUS
 70
     0
  3
Solid line
 72
    65
 73
     0
 40
0.0
  0
LTYPE
  2
CONTINUOUS2
 70
     0
  3
Solid Line
 72
    65
 73
     0
 40
0.0
  0
ENDTAB
  0
TABLE
  2
LAYER
 70
     2
  0
LAYER
  2
0
 70
     0
 62
     7
  6
CONTINUOUS
  0
LAYER
  2
SignTorch_-_WOLF_PAW_
 70
     0
 62
    18
  6
CONTINUOUS
  0
ENDTAB
  0
TABLE
  2
STYLE
 70
     1
  0
STYLE
  2
STANDARD
 70
     0
 40
0.0
 41
1.0
 50
0.0
 71
     0
 42
0.2
  3
txt
  4

  0
ENDTAB
  0
TABLE
  2
VIEW
 70
     0
  0
ENDTAB
  0
TABLE
  2
UCS
 70
     0
  0
ENDTAB
  0
TABLE
  2
APPID
 70
     1
  0
APPID
  2
ACAD
 70
     0
  0
ENDTAB
  0
TABLE
  2
DIMSTYLE
 70
     1
  0
DIMSTYLE
  2
STANDARD
 70
     0
  3

  4

  5

  6

  7

 40
1.0
 41
0.18
 42
0.0625
 43
0.38
 44
0.18
 45
0.0
 46
0.0
 47
0.0
 48
0.0
140
0.18
141
0.09
142
0.0
143
25.4
144
1.0
145
0.0
146
1.0
147
0.09
 71
     0
 72
     0
 73
     1
 74
     1
 75
     0
 76
     0
 77
     0
 78
     0
170
     0
171
     2
172
     0
173
     0
174
     0
175
     0
176
     0
177
     0
178
     0
  0
ENDTAB
  0
ENDSEC
  0
SECTION
  2
BLOCKS
  0
BLOCK
  8
0
  2
$MODEL_SPACE
 70
     0
 10
0.0
 20
0.0
 30
0.0
  3
$MODEL_SPACE
  1

  0
ENDBLK
  5
21
  8
0
  0
BLOCK
 67
     1
  8
0
  2
$PAPER_SPACE
 70
     0
 10
0.0
 20
0.0
 30
0.0
  3
$PAPER_SPACE
  1

  0
ENDBLK
  5
1D
 67
     1
  8
0
  0
ENDSEC
  0
SECTION
  2
ENTITIES
  0
POLYLINE
  5
41
  8
SignTorch_-_WOLF_PAW_
 66
     1
 10
0.0
 20
0.0
 30
0.0
 70
     1
  0
VERTEX
  5
50
  8
SignTorch_-_WOLF_PAW_
 10
5.905081236097547
 20
3.976185465494791
 30
0.0
 42
0.0314096901222742
  0
VERTEX
  5
51
  8
SignTorch_-_WOLF_PAW_
 10
6.515033439567331
 20
4.278889685273559
 30
0.0
 42
-0.0510360830581769
  0
VERTEX
  5
52
  8
SignTorch_-_WOLF_PAW_
 10
6.849628111097547
 20
4.428904215494791
 30
0.0
 42
-0.1091709494349123
  0
VERTEX
  5
53
  8
SignTorch_-_WOLF_PAW_
 10
7.314581271093157
 20
4.47650124928691
 30
0.0
 42
-0.1169741976208457
  0
VERTEX
  5
54
  8
SignTorch_-_WOLF_PAW_
 10
7.725299986097547
 20
4.327341715494791
 30
0.0
 42
-0.0433598415446534
  0
VERTEX
  5
55
  8
SignTorch_-_WOLF_PAW_
 10
7.975072052842632
 20
4.130306246160881
 30
0.0
 42
-0.0790375413748373
  0
VERTEX
  5
56
  8
SignTorch_-_WOLF_PAW_
 10
8.188378111097549
 20
3.854595621744791
 30
0.0
 42
-0.0526270658139653
  0
VERTEX
  5
57
  8
SignTorch_-_WOLF_PAW_
 10
8.349505895603466
 20
3.468733098164816
 30
0.0
 42
0.0398792451239322
  0
VERTEX
  5
58
  8
SignTorch_-_WOLF_PAW_
 10
8.430956236097547
 20
3.258814371744791
 30
0.0
 42
0.0862795732824677
  0
VERTEX
  5
59
  8
SignTorch_-_WOLF_PAW_
 10
8.580506695739265
 20
3.05020607847291
 30
0.0
 42
-0.0460504195314835
  0
VERTEX
  5
5A
  8
SignTorch_-_WOLF_PAW_
 10
8.746268736097548
 20
2.854232340494792
 30
0.0
 42
-0.1208340268896019
  0
VERTEX
  5
5B
  8
SignTorch_-_WOLF_PAW_
 10
8.878254469690562
 20
2.513472986269197
 30
0.0
 42
-0.1018834864668985
  0
VERTEX
  5
5C
  8
SignTorch_-_WOLF_PAW_
 10
8.846331236097548
 20
2.083060465494792
 30
0.0
 42
-0.1705545470583041
  0
VERTEX
  5
5D
  8
SignTorch_-_WOLF_PAW_
 10
8.559822653377806
 20
1.677427223565386
 30
0.0
 42
-0.1069200208357707
  0
VERTEX
  5
5E
  8
SignTorch_-_WOLF_PAW_
 10
7.844206236097547
 20
1.370685465494792
 30
0.0
 42
-0.0369515265407684
  0
VERTEX
  5
5F
  8
SignTorch_-_WOLF_PAW_
 10
7.727484637414364
 20
1.356842176830019
 30
0.0
 42
-0.0006868890789806
  0
VERTEX
  5
60
  8
SignTorch_-_WOLF_PAW_
 10
7.417034361097548
 20
1.343544840494792
 30
0.0
 42
-0.0558439317108875
  0
VERTEX
  5
61
  8
SignTorch_-_WOLF_PAW_
 10
6.272575288081229
 20
1.423948524022303
 30
0.0
 42
-0.0542904795338119
  0
VERTEX
  5
62
  8
SignTorch_-_WOLF_PAW_
 10
5.858206236097547
 20
1.547685465494792
 30
0.0
 42
-0.0381255055945394
  0
VERTEX
  5
63
  8
SignTorch_-_WOLF_PAW_
 10
5.334072707688929
 20
1.817149563292429
 30
0.0
 42
-0.0916480117747869
  0
VERTEX
  5
64
  8
SignTorch_-_WOLF_PAW_
 10
4.932536314222547
 20
2.179302652994791
 30
0.0
 42
-0.1140170104300225
  0
VERTEX
  5
65
  8
SignTorch_-_WOLF_PAW_
 10
4.768357987731202
 20
2.540058301052567
 30
0.0
 42
-0.1881872895298666
  0
VERTEX
  5
66
  8
SignTorch_-_WOLF_PAW_
 10
4.900724058363172
 20
3.302052652994791
 30
0.0
 42
-0.1069496875476194
  0
VERTEX
  5
67
  8
SignTorch_-_WOLF_PAW_
 10
5.212543347190698
 20
3.632034222991469
 30
0.0
 42
-0.0478613876437508
  0
VERTEX
  5
68
  8
SignTorch_-_WOLF_PAW_
 10
5.626206236097548
 20
3.860685465494792
 30
0.0
 42
-0.0068925081105957
  0
VERTEX
  5
69
  8
SignTorch_-_WOLF_PAW_
 10
5.765478629705106
 20
3.918834115236714
 30
0.0
 42
0.0040334434787396
  0
SEQEND
  5
6A
  8
SignTorch_-_WOLF_PAW_
  0
POLYLINE
  5
42
  8
SignTorch_-_WOLF_PAW_
 66
     1
 10
0.0
 20
0.0
 30
0.0
 70
     1
  0
VERTEX
  5
6B
  8
SignTorch_-_WOLF_PAW_
 10
5.225206236097548
 20
6.585685465494791
 30
0.0
 42
-0.1167312442454724
  0
VERTEX
  5
6C
  8
SignTorch_-_WOLF_PAW_
 10
5.208764965219657
 20
6.489168688653596
 30
0.0
 42
-0.2951662912977225
  0
VERTEX
  5
6D
  8
SignTorch_-_WOLF_PAW_
 10
5.081651548597548
 20
6.403019449869792
 30
0.0
 42
-0.2018695964439563
  0
VERTEX
  5
6E
  8
SignTorch_-_WOLF_PAW_
 10
4.893639139071317
 20
6.477415416744257
 30
0.0
 42
-0.2155969859568701
  0
VERTEX
  5
6F
  8
SignTorch_-_WOLF_PAW_
 10
4.824635923597548
 20
6.654833902994792
 30
0.0
 42
-0.0431140487563997
  0
VERTEX
  5
70
  8
SignTorch_-_WOLF_PAW_
 10
4.83232233568271
 20
6.709400623125504
 30
0.0
 42
-0.0131516842784988
  0
VERTEX
  5
71
  8
SignTorch_-_WOLF_PAW_
 10
4.877362486097547
 20
6.884029215494791
 30
0.0
 42
-0.0468996827695102
  0
VERTEX
  5
72
  8
SignTorch_-_WOLF_PAW_
 10
4.934128735790211
 20
7.029328278173731
 30
0.0
 42
-0.2475947446085475
  0
VERTEX
  5
73
  8
SignTorch_-_WOLF_PAW_
 10
5.013206236097547
 20
7.085685465494791
 30
0.0
 42
-0.2409727563315144
  0
VERTEX
  5
74
  8
SignTorch_-_WOLF_PAW_
 10
5.097641233320104
 20
7.055896621051791
 30
0.0
 42
-0.1264589265326851
  0
VERTEX
  5
75
  8
SignTorch_-_WOLF_PAW_
 10
5.177206236097548
 20
6.912685465494792
 30
0.0
 42
-0.0222210517934891
  0
VERTEX
  5
76
  8
SignTorch_-_WOLF_PAW_
 10
5.180596776928517
 20
6.896863349800594
 30
0.0
 42
-0.0038920338749917
  0
VERTEX
  5
77
  8
SignTorch_-_WOLF_PAW_
 10
5.195206236097548
 20
6.805685465494791
 30
0.0
 42
-0.0038920338749902
  0
VERTEX
  5
78
  8
SignTorch_-_WOLF_PAW_
 10
5.221272652016896
 20
6.625046267639304
 30
0.0
 42
-0.0179628569870899
  0
SEQEND
  5
79
  8
SignTorch_-_WOLF_PAW_
  0
POLYLINE
  5
43
  8
SignTorch_-_WOLF_PAW_
 66
     1
 10
0.0
 20
0.0
 30
0.0
 70
     1
  0
VERTEX
  5
7A
  8
SignTorch_-_WOLF_PAW_
 10
6.023206236097547
 20
5.323685465494791
 30
0.0
 42
-0.0042024320608117
  0
VERTEX
  5
7B
  8
SignTorch_-_WOLF_PAW_
 10
6.142453241553698
 20
5.146924426531446
 30
0.0
 42
-0.1250450251998742
  0
VERTEX
  5
7C
  8
SignTorch_-_WOLF_PAW_
 10
6.207206236097548
 20
4.96168546549479
 30
0.0
 42
0.0021955827336508
  0
VERTEX
  5
7D
  8
SignTorch_-_WOLF_PAW_
 10
6.222250021302209
 20
4.798412498517806
 30
0.0
 42
-0.1305558041364902
  0
VERTEX
  5
7E
  8
SignTorch_-_WOLF_PAW_
 10
6.200206236097547
 20
4.664685465494792
 30
0.0
 42
-0.1146123539731754
  0
VERTEX
  5
7F
  8
SignTorch_-_WOLF_PAW_
 10
6.012195863723495
 20
4.418007653547624
 30
0.0
 42
-0.0332610218574859
  0
VERTEX
  5
80
  8
SignTorch_-_WOLF_PAW_
 10
5.676206236097547
 20
4.175685465494791
 30
0.0
 42
-0.0233076918967311
  0
VERTEX
  5
81
  8
SignTorch_-_WOLF_PAW_
 10
5.28633916936769
 20
3.956728130012395
 30
0.0
 42
-0.0981862529631472
  0
VERTEX
  5
82
  8
SignTorch_-_WOLF_PAW_
 10
4.994813657972547
 20
3.876244059244791
 30
0.0
 42
-0.2459640416691976
  0
VERTEX
  5
83
  8
SignTorch_-_WOLF_PAW_
 10
4.472121127093722
 20
4.102633177304942
 30
0.0
 42
-0.0727404446080503
  0
VERTEX
  5
84
  8
SignTorch_-_WOLF_PAW_
 10
4.264899595472547
 20
4.452691324869791
 30
0.0
 42
-0.0622788483269309
  0
VERTEX
  5
85
  8
SignTorch_-_WOLF_PAW_
 10
4.146936000528532
 20
4.887596623427727
 30
0.0
 42
-0.0499964778636915
  0
VERTEX
  5
86
  8
SignTorch_-_WOLF_PAW_
 10
4.124206236097548
 20
5.447685465494792
 30
0.0
 42
-0.1201941656407897
  0
VERTEX
  5
87
  8
SignTorch_-_WOLF_PAW_
 10
4.270818298237359
 20
5.924019898810179
 30
0.0
 42
-0.1501788534902307
  0
VERTEX
  5
88
  8
SignTorch_-_WOLF_PAW_
 10
4.569128111097547
 20
6.193591715494791
 30
0.0
 42
-0.1779257340290966
  0
VERTEX
  5
89
  8
SignTorch_-_WOLF_PAW_
 10
4.933345912923104
 20
6.224456207173908
 30
0.0
 42
-0.101727685322747
  0
VERTEX
  5
8A
  8
SignTorch_-_WOLF_PAW_
 10
5.491456236097547
 20
5.940685465494791
 30
0.0
 42
-0.0606318760131478
  0
VERTEX
  5
8B
  8
SignTorch_-_WOLF_PAW_
 10
5.811346823148505
 20
5.615076060387799
 30
0.0
 42
-0.013382843256726
  0
SEQEND
  5
8C
  8
SignTorch_-_WOLF_PAW_
  0
POLYLINE
  5
44
  8
SignTorch_-_WOLF_PAW_
 66
     1
 10
0.0
 20
0.0
 30
0.0
 70
     1
  0
VERTEX
  5
8D
  8
SignTorch_-_WOLF_PAW_
 10
7.734174986097547
 20
5.500169840494792
 30
0.0
 42
-0.0277224477607286
  0
VERTEX
  5
8E
  8
SignTorch_-_WOLF_PAW_
 10
7.560886861127072
 20
5.056406576059095
 30
0.0
 42
-0.1477846155439784
  0
VERTEX
  5
8F
  8
SignTorch_-_WOLF_PAW_
 10
7.368534361097548
 20
4.837607340494792
 30
0.0
 42
-0.2238717771736396
  0
VERTEX
  5
90
  8
SignTorch_-_WOLF_PAW_
 10
7.009715771593638
 20
4.795903115389146
 30
0.0
 42
-0.0958578892864827
  0
VERTEX
  5
91
  8
SignTorch_-_WOLF_PAW_
 10
6.676133970472547
 20
4.985089762369792
 30
0.0
 42
-0.044438997152547
  0
VERTEX
  5
92
  8
SignTorch_-_WOLF_PAW_
 10
6.44841805911666
 20
5.21761922281119
 30
0.0
 42
-0.0380237612132973
  0
VERTEX
  5
93
  8
SignTorch_-_WOLF_PAW_
 10
6.230596861097547
 20
5.529201090494791
 30
0.0
 42
-0.0561753559434471
  0
VERTEX
  5
94
  8
SignTorch_-_WOLF_PAW_
 10
6.111694134991592
 20
5.794128623215422
 30
0.0
 42
-0.1251590838788631
  0
VERTEX
  5
95
  8
SignTorch_-_WOLF_PAW_
 10
6.082061948988172
 20
6.282431070963541
 30
0.0
 42
-0.1425229394643613
  0
VERTEX
  5
96
  8
SignTorch_-_WOLF_PAW_
 10
6.363189855735373
 20
6.833748113511562
 30
0.0
 42
-0.1497770225123636
  0
VERTEX
  5
97
  8
SignTorch_-_WOLF_PAW_
 10
6.875659361097547
 20
7.126326090494791
 30
0.0
 42
-0.0513470341267175
  0
VERTEX
  5
98
  8
SignTorch_-_WOLF_PAW_
 10
7.1083192742145
 20
7.154099998952915
 30
0.0
 42
-0.1466174373112038
  0
VERTEX
  5
99
  8
SignTorch_-_WOLF_PAW_
 10
7.447405454847548
 20
7.058445231119791
 30
0.0
 42
-0.0900247143830796
  0
VERTEX
  5
9A
  8
SignTorch_-_WOLF_PAW_
 10
7.667074097859575
 20
6.855569469239628
 30
0.0
 42
-0.069876278408859
  0
VERTEX
  5
9B
  8
SignTorch_-_WOLF_PAW_
 10
7.853206236097549
 20
6.519685465494791
 30
0.0
 42
-0.0960788445210555
  0
VERTEX
  5
9C
  8
SignTorch_-_WOLF_PAW_
 10
7.897199920926912
 20
6.270767223090582
 30
0.0
 42
-0.0583245442243473
  0
VERTEX
  5
9D
  8
SignTorch_-_WOLF_PAW_
 10
7.842237486097547
 20
5.860435465494792
 30
0.0
 42
-0.0104359189266519
  0
VERTEX
  5
9E
  8
SignTorch_-_WOLF_PAW_
 10
7.804163877543065
 20
5.723154950288467
 30
0.0
 42
-0.0063609536119409
  0
SEQEND
  5
9F
  8
SignTorch_-_WOLF_PAW_
  0
POLYLINE
  5
45
  8
SignTorch_-_WOLF_PAW_
 66
     1
 10
0.0
 20
0.0
 30
0.0
 70
     1
  0
VERTEX
  5
A0
  8
SignTorch_-_WOLF_PAW_
 10
8.055331236097548
 20
7.383560465494791
 30
0.0
 42
-0.0763264407496979
  0
VERTEX
  5
A1
  8
SignTorch_-_WOLF_PAW_
 10
7.988218208879378
 20
7.245541656202384
 30
0.0
 42
-0.3400419954627474
  0
VERTEX
  5
A2
  8
SignTorch_-_WOLF_PAW_
 10
7.802471861097547
 20
7.185982340494792
 30
0.0
 42
-0.1133617785887153
  0
VERTEX
  5
A3
  8
SignTorch_-_WOLF_PAW_
 10
7.620666910002989
 20
7.302775612958692
 30
0.0
 42
-0.1924741528921247
  0
VERTEX
  5
A4
  8
SignTorch_-_WOLF_PAW_
 10
7.588286314222547
 20
7.380724527994791
 30
0.0
 42
-0.0696219025528713
  0
VERTEX
  5
A5
  8
SignTorch_-_WOLF_PAW_
 10
7.599036603793732
 20
7.465866137357819
 30
0.0
 42
-0.0697096549869396
  0
VERTEX
  5
A6
  8
SignTorch_-_WOLF_PAW_
 10
7.689940611097546
 20
7.678609293619792
 30
0.0
 42
-0.1025556124968882
  0
VERTEX
  5
A7
  8
SignTorch_-_WOLF_PAW_
 10
7.866356484699678
 20
7.868967375582133
 30
0.0
 42
-0.1356109742148672
  0
VERTEX
  5
A8
  8
SignTorch_-_WOLF_PAW_
 10
8.052206236097549
 20
7.936685465494791
 30
0.0
 42
-0.1883111486988051
  0
VERTEX
  5
A9
  8
SignTorch_-_WOLF_PAW_
 10
8.120626188222284
 20
7.916087519226016
 30
0.0
 42
-0.1920422446413521
  0
VERTEX
  5
AA
  8
SignTorch_-_WOLF_PAW_
 10
8.155891782972548
 20
7.855433512369791
 30
0.0
 42
-0.0861146124736807
  0
VERTEX
  5
AB
  8
SignTorch_-_WOLF_PAW_
 10
8.153838143396463
 20
7.772045429322378
 30
0.0
 42
-0.0259583161131831
  0
SEQEND
  5
AC
  8
SignTorch_-_WOLF_PAW_
  0
POLYLINE
  5
46
  8
SignTorch_-_WOLF_PAW_
 66
     1
 10
0.0
 20
0.0
 30
0.0
 70
     1
  0
VERTEX
  5
AD
  8
SignTorch_-_WOLF_PAW_
 10
9.771206236097548
 20
7.047810465494791
 30
0.0
 42
-0.0380837205737895
  0
VERTEX
  5
AE
  8
SignTorch_-_WOLF_PAW_
 10
9.735682854842887
 20
6.890080351818944
 30
0.0
 42
-0.309949236647985
  0
VERTEX
  5
AF
  8
SignTorch_-_WOLF_PAW_
 10
9.597942564222548
 20
6.780499918619792
 30
0.0
 42
-0.021994900274366
  0
VERTEX
  5
B0
  8
SignTorch_-_WOLF_PAW_
 10
9.541759012842222
 20
6.778986793973922
 30
0.0
 42
-0.0094591089741054
  0
VERTEX
  5
B1
  8
SignTorch_-_WOLF_PAW_
 10
9.411206236097547
 20
6.783685465494791
 30
0.0
 42
-0.1113967235696419
  0
VERTEX
  5
B2
  8
SignTorch_-_WOLF_PAW_
 10
9.317939504773056
 20
6.810178998880088
 30
0.0
 42
-0.216510132276655
  0
VERTEX
  5
B3
  8
SignTorch_-_WOLF_PAW_
 10
9.256395689222545
 20
6.891861246744791
 30
0.0
 42
-0.1344613749923969
  0
VERTEX
  5
B4
  8
SignTorch_-_WOLF_PAW_
 10
9.263029506700258
 20
7.029816686202662
 30
0.0
 42
-0.0949375322854052
  0
VERTEX
  5
B5
  8
SignTorch_-_WOLF_PAW_
 10
9.490956236097546
 20
7.442435465494792
 30
0.0
 42
-0.0611782643255813
  0
VERTEX
  5
B6
  8
SignTorch_-_WOLF_PAW_
 10
9.645429084035417
 20
7.587677047786281
 30
0.0
 42
-0.4111432637132473
  0
VERTEX
  5
B7
  8
SignTorch_-_WOLF_PAW_
 10
9.768518736097548
 20
7.569357340494792
 30
0.0
 42
-0.156957613945375
  0
VERTEX
  5
B8
  8
SignTorch_-_WOLF_PAW_
 10
9.810282105948755
 20
7.448032278065091
 30
0.0
 42
-0.0407650939664616
  0
VERTEX
  5
B9
  8
SignTorch_-_WOLF_PAW_
 10
9.799206236097547
 20
7.267685465494791
 30
0.0
 42
0.0084006001142329
  0
VERTEX
  5
BA
  8
SignTorch_-_WOLF_PAW_
 10
9.785276796150473
 20
7.157738980019035
 30
0.0
 42
-0.0090424685651609
  0
SEQEND
  5
BB
  8
SignTorch_-_WOLF_PAW_
  0
POLYLINE
  5
47
  8
SignTorch_-_WOLF_PAW_
 66
     1
 10
0.0
 20
0.0
 30
0.0
 70
     1
  0
VERTEX
  5
BC
  8
SignTorch_-_WOLF_PAW_
 10
9.949206236097547
 20
5.623685465494792
 30
0.0
 42
-0.0884815522721088
  0
VERTEX
  5
BD
  8
SignTorch_-_WOLF_PAW_
 10
9.741900645470478
 20
4.943713422172229
 30
0.0
 42
-0.081125636010008
  0
VERTEX
  5
BE
  8
SignTorch_-_WOLF_PAW_
 10
9.282985532972546
 20
4.319980387369791
 30
0.0
 42
-0.0655605039667863
  0
VERTEX
  5
BF
  8
SignTorch_-_WOLF_PAW_
 10
9.00372072929999
 20
4.110469540623143
 30
0.0
 42
-0.224142307882642
  0
VERTEX
  5
C0
  8
SignTorch_-_WOLF_PAW_
 10
8.517778745863172
 20
4.075560709635417
 30
0.0
 42
-0.0801696960982557
  0
VERTEX
  5
C1
  8
SignTorch_-_WOLF_PAW_
 10
8.304690955506672
 20
4.200206123499128
 30
0.0
 42
-0.118496998792292
  0
VERTEX
  5
C2
  8
SignTorch_-_WOLF_PAW_
 10
7.993206236097548
 20
4.613685465494791
 30
0.0
 42
-0.141997917545046
  0
VERTEX
  5
C3
  8
SignTorch_-_WOLF_PAW_
 10
7.931960127533015
 20
5.090977724062388
 30
0.0
 42
-0.1542074296982572
  0
VERTEX
  5
C4
  8
SignTorch_-_WOLF_PAW_
 10
8.467534361097547
 20
6.170630777994791
 30
0.0
 42
-0.0946174047653138
  0
VERTEX
  5
C5
  8
SignTorch_-_WOLF_PAW_
 10
8.892455675453261
 20
6.471189383557065
 30
0.0
 42
-0.1634918346336624
  0
VERTEX
  5
C6
  8
SignTorch_-_WOLF_PAW_
 10
9.481221861097547
 20
6.531951090494792
 30
0.0
 42
-0.150038865954055
  0
VERTEX
  5
C7
  8
SignTorch_-_WOLF_PAW_
 10
9.768482741240165
 20
6.367806495328176
 30
0.0
 42
-0.1292943211038189
  0
VERTEX
  5
C8
  8
SignTorch_-_WOLF_PAW_
 10
9.950382017347547
 20
6.032169840494792
 30
0.0
 42
-0.0606643746619503
  0
VERTEX
  5
C9
  8
SignTorch_-_WOLF_PAW_
 10
9.966112585628533
 20
5.899820979869405
 30
0.0
 42
-0.0291433008475002
  0
SEQEND
  5
CA
  8
SignTorch_-_WOLF_PAW_
  0
POLYLINE
  5
48
  8
SignTorch_-_WOLF_PAW_
 66
     1
 10
0.0
 20
0.0
 30
0.0
 70
     1
  0
VERTEX
  5
CB
  8
SignTorch_-_WOLF_PAW_
 10
10.59419061109755
 20
4.889607340494791
 30
0.0
 42
-0.0454225094882117
  0
VERTEX
  5
CC
  8
SignTorch_-_WOLF_PAW_
 10
10.74692297835427
 20
5.109221428848154
 30
0.0
 42
-0.1730400758920205
  0
VERTEX
  5
CD
  8
SignTorch_-_WOLF_PAW_
 10
10.80920623609755
 20
5.145685465494791
 30
0.0
 42
-0.3524289558197864
  0
VERTEX
  5
CE
  8
SignTorch_-_WOLF_PAW_
 10
10.89214286865633
 20
5.101372923396859
 30
0.0
 42
-0.0857600698349149
  0
VERTEX
  5
CF
  8
SignTorch_-_WOLF_PAW_
 10
10.92250897047255
 20
4.972447184244791
 30
0.0
 42
-0.1140098232896924
  0
VERTEX
  5
D0
  8
SignTorch_-_WOLF_PAW_
 10
10.85977013567384
 20
4.599866781208067
 30
0.0
 42
-0.2799865934297833
  0
VERTEX
  5
D1
  8
SignTorch_-_WOLF_PAW_
 10
10.77020623609755
 20
4.534435465494791
 30
0.0
 42
-0.1090765854661107
  0
VERTEX
  5
D2
  8
SignTorch_-_WOLF_PAW_
 10
10.69669923888116
 20
4.544221113996753
 30
0.0
 42
-0.066171090482048
  0
VERTEX
  5
D3
  8
SignTorch_-_WOLF_PAW_
 10
10.58918084547255
 20
4.600441324869792
 30
0.0
 42
-0.1023466891868994
  0
VERTEX
  5
D4
  8
SignTorch_-_WOLF_PAW_
 10
10.54101464911505
 20
4.651847284774583
 30
0.0
 42
-0.2330435564359148
  0
VERTEX
  5
D5
  8
SignTorch_-_WOLF_PAW_
 10
10.53043475172255
 20
4.767820231119791
 30
0.0
 42
-0.0288414003961323
  0
VERTEX
  5
D6
  8
SignTorch_-_WOLF_PAW_
 10
10.54351963624085
 20
4.796762175939567
 30
0.0
 42
-0.0086542479236636
  0
SEQEND
  5
D7
  8
SignTorch_-_WOLF_PAW_
  0
POLYLINE
  5
49
  8
SignTorch_-_WOLF_PAW_
 66
     1
 10
0.0
 20
0.0
 30
0.0
 70
     1
  0
VERTEX
  5
D8
  8
SignTorch_-_WOLF_PAW_
 10
9.819206236097546
 20
4.200685465494792
 30
0.0
 42
-0.0067767699556701
  0
VERTEX
  5
D9
  8
SignTorch_-_WOLF_PAW_
 10
10.2032569187397
 20
4.373200115278203
 30
0.0
 42
-0.0747184471220476
  0
VERTEX
  5
DA
  8
SignTorch_-_WOLF_PAW_
 10
10.39720623609755
 20
4.424685465494791
 30
0.0
 42
-0.3325503833338543
  0
VERTEX
  5
DB
  8
SignTorch_-_WOLF_PAW_
 10
10.70274017216757
 20
4.244937523885559
 30
0.0
 42
-0.0494378955860163
  0
VERTEX
  5
DC
  8
SignTorch_-_WOLF_PAW_
 10
10.79440936109755
 20
3.946622965494792
 30
0.0
 42
-0.0631713540006842
  0
VERTEX
  5
DD
  8
SignTorch_-_WOLF_PAW_
 10
10.81991003623448
 20
3.598690948316209
 30
0.0
 42
-0.13896585106243
  0
VERTEX
  5
DE
  8
SignTorch_-_WOLF_PAW_
 10
10.62890740797255
 20
3.039558512369791
 30
0.0
 42
-0.1344219888810733
  0
VERTEX
  5
DF
  8
SignTorch_-_WOLF_PAW_
 10
10.00722638048804
 20
2.51781853877142
 30
0.0
 42
-0.0810107973397246
  0
VERTEX
  5
E0
  8
SignTorch_-_WOLF_PAW_
 10
9.608206236097546
 20
2.407685465494791
 30
0.0
 42
-0.2105581352396753
  0
VERTEX
  5
E1
  8
SignTorch_-_WOLF_PAW_
 10
9.30109737335749
 20
2.505187312921767
 30
0.0
 42
-0.1175257304681148
  0
VERTEX
  5
E2
  8
SignTorch_-_WOLF_PAW_
 10
8.978065611097547
 20
2.963122965494792
 30
0.0
 42
-0.0870564042482242
  0
VERTEX
  5
E3
  8
SignTorch_-_WOLF_PAW_
 10
8.899693470996464
 20
3.336878432285421
 30
0.0
 42
-0.2335506375080068
  0
VERTEX
  5
E4
  8
SignTorch_-_WOLF_PAW_
 10
9.142210142347547
 20
3.871507731119792
 30
0.0
 42
-0.0762143510975423
  0
VERTEX
  5
E5
  8
SignTorch_-_WOLF_PAW_
 10
9.369532832075453
 20
4.005902315875699
 30
0.0
 42
0.0134873183498573
  0
SEQEND
  5
E6
  8
SignTorch_-_WOLF_PAW_
  0
POLYLINE
  5
4A
  8
SignTorch_-_WOLF_PAW_
 66
     1
 10
0.0
 20
0.0
 30
0.0
 70
     1
  0
VERTEX
  5
E7
  8
SignTorch_-_WOLF_PAW_
 10
11.14920623609755
 20
3.282685465494791
 30
0.0
 42
-0.0061568752429948
  0
VERTEX
  5
E8
  8
SignTorch_-_WOLF_PAW_
 10
11.2272686404946
 20
3.450459525013693
 30
0.0
 42
-0.0165022926640249
  0
VERTEX
  5
E9
  8
SignTorch_-_WOLF_PAW_
 10
11.25920623609755
 20
3.511685465494792
 30
0.0
 42
0.0603867742791179
  0
VERTEX
  5
EA
  8
SignTorch_-_WOLF_PAW_
 10
11.29547770544754
 20
3.599133569865397
 30
0.0
 42
0.2189575360358624
  0
VERTEX
  5
EB
  8
SignTorch_-_WOLF_PAW_
 10
11.28445623609755
 20
3.668060465494792
 30
0.0
 42
0.0353887535928122
  0
VERTEX
  5
EC
  8
SignTorch_-_WOLF_PAW_
 10
11.245845178898
 20
3.717767338383327
 30
0.0
 42
-0.1659734777132628
  0
VERTEX
  5
ED
  8
SignTorch_-_WOLF_PAW_
 10
11.22120623609755
 20
3.775685465494792
 30
0.0
 42
-0.1157836795553584
  0
VERTEX
  5
EE
  8
SignTorch_-_WOLF_PAW_
 10
11.23641495447079
 20
3.871590526982202
 30
0.0
 42
0.0756519205938683
  0
VERTEX
  5
EF
  8
SignTorch_-_WOLF_PAW_
 10
11.27870623609755
 20
4.046837809244791
 30
0.0
 42
0.1136276780311793
  0
VERTEX
  5
F0
  8
SignTorch_-_WOLF_PAW_
 10
11.26674442202498
 20
4.131411274230357
 30
0.0
 42
0.1698346263488068
  0
VERTEX
  5
F1
  8
SignTorch_-_WOLF_PAW_
 10
11.22920623609755
 20
4.175685465494791
 30
0.0
 42
0.0769078487448374
  0
VERTEX
  5
F2
  8
SignTorch_-_WOLF_PAW_
 10
11.15567650229533
 20
4.204847647068909
 30
0.0
 42
-0.3119253165855734
  0
VERTEX
  5
F3
  8
SignTorch_-_WOLF_PAW_
 10
11.10222186109755
 20
4.263154215494791
 30
0.0
 42
-0.0897582344819149
  0
VERTEX
  5
F4
  8
SignTorch_-_WOLF_PAW_
 10
11.1053245275951
 20
4.337431598624099
 30
0.0
 42
0.0122958225352275
  0
VERTEX
  5
F5
  8
SignTorch_-_WOLF_PAW_
 10
11.13220623609755
 20
4.472685465494791
 30
0.0
 42
-0.0021419525192089
  0
VERTEX
  5
F6
  8
SignTorch_-_WOLF_PAW_
 10
11.20673835942258
 20
4.892057067468907
 30
0.0
 42
0.0847897607687853
  0
VERTEX
  5
F7
  8
SignTorch_-_WOLF_PAW_
 10
11.21053436109755
 20
5.237263590494791
 30
0.0
 42
0.1010620678794086
  0
VERTEX
  5
F8
  8
SignTorch_-_WOLF_PAW_
 10
11.11241570103552
 20
5.498239579864975
 30
0.0
 42
0.235391041645998
  0
VERTEX
  5
F9
  8
SignTorch_-_WOLF_PAW_
 10
11.00562811109755
 20
5.563326090494792
 30
0.0
 42
0.1396062982865798
  0
VERTEX
  5
FA
  8
SignTorch_-_WOLF_PAW_
 10
10.90221548174974
 20
5.543178943851975
 30
0.0
 42
0.0634871974270695
  0
VERTEX
  5
FB
  8
SignTorch_-_WOLF_PAW_
 10
10.71347186109755
 20
5.414982340494791
 30
0.0
 42
0.0237028291618158
  0
VERTEX
  5
FC
  8
SignTorch_-_WOLF_PAW_
 10
10.58358748810337
 20
5.288826368024075
 30
0.0
 42
-0.1110811659499331
  0
VERTEX
  5
FD
  8
SignTorch_-_WOLF_PAW_
 10
10.50283123609755
 20
5.233935465494791
 30
0.0
 42
-0.5749516700314055
  0
VERTEX
  5
FE
  8
SignTorch_-_WOLF_PAW_
 10
10.40424294974059
 20
5.311701587176899
 30
0.0
 42
0.038009927574167
  0
VERTEX
  5
FF
  8
SignTorch_-_WOLF_PAW_
 10
10.41520232984755
 20
5.480882731119792
 30
0.0
 42
0.0692615227091986
  0
VERTEX
  5
100
  8
SignTorch_-_WOLF_PAW_
 10
10.40308871142983
 20
5.56125285618987
 30
0.0
 42
0.1400177250612104
  0
VERTEX
  5
101
  8
SignTorch_-_WOLF_PAW_
 10
10.38120623609755
 20
5.595685465494791
 30
0.0
 42
0.0722697384099341
  0
VERTEX
  5
102
  8
SignTorch_-_WOLF_PAW_
 10
10.31209484132881
 20
5.641178272436346
 30
0.0
 42
-0.2570123484791992
  0
VERTEX
  5
103
  8
SignTorch_-_WOLF_PAW_
 10
10.26336248609755
 20
5.708044840494791
 30
0.0
 42
-0.0860393395756462
  0
VERTEX
  5
104
  8
SignTorch_-_WOLF_PAW_
 10
10.26739170942561
 20
5.797529542277109
 30
0.0
 42
0.0949116680568537
  0
VERTEX
  5
105
  8
SignTorch_-_WOLF_PAW_
 10
10.27720623609755
 20
6.155685465494792
 30
0.0
 42
0.0661822708708912
  0
VERTEX
  5
106
  8
SignTorch_-_WOLF_PAW_
 10
10.13456076780531
 20
6.626759114264805
 30
0.0
 42
0.147333547657768
  0
VERTEX
  5
107
  8
SignTorch_-_WOLF_PAW_
 10
10.03615936109755
 20
6.739232340494791
 30
0.0
 42
-0.0510110024650153
  0
VERTEX
  5
108
  8
SignTorch_-_WOLF_PAW_
 10
9.981085562724763
 20
6.782099194607999
 30
0.0
 42
-0.1800022898686245
  0
VERTEX
  5
109
  8
SignTorch_-_WOLF_PAW_
 10
9.958440611097547
 20
6.828826090494792
 30
0.0
 42
-0.1129270489977184
  0
VERTEX
  5
10A
  8
SignTorch_-_WOLF_PAW_
 10
9.97072622016301
 20
6.922929050807952
 30
0.0
 42
0.0661627777185305
  0
VERTEX
  5
10B
  8
SignTorch_-_WOLF_PAW_
 10
10.05445428297255
 20
7.292851481119792
 30
0.0
 42
0.0791266887879246
  0
VERTEX
  5
10C
  8
SignTorch_-_WOLF_PAW_
 10
10.02319814502786
 20
7.755420018965689
 30
0.0
 42
0.1795220461438036
  0
VERTEX
  5
10D
  8
SignTorch_-_WOLF_PAW_
 10
9.908206236097547
 20
7.930685465494791
 30
0.0
 42
0.2456757232984488
  0
VERTEX
  5
10E
  8
SignTorch_-_WOLF_PAW_
 10
9.759001841607876
 20
7.953704957643645
 30
0.0
 42
0.0867365888481518
  0
VERTEX
  5
10F
  8
SignTorch_-_WOLF_PAW_
 10
9.602206236097548
 20
7.867685465494793
 30
0.0
 42
0.053430427511414
  0
VERTEX
  5
110
  8
SignTorch_-_WOLF_PAW_
 10
9.205408383970527
 20
7.47391079644972
 30
0.0
 42
0.0768766045606956
  0
VERTEX
  5
111
  8
SignTorch_-_WOLF_PAW_
 10
9.008727720472548
 20
7.137468668619791
 30
0.0
 42
0.0200448276665982
  0
VERTEX
  5
112
  8
SignTorch_-_WOLF_PAW_
 10
8.938547979549227
 20
6.936181406915575
 30
0.0
 42
-0.3918871864727996
  0
VERTEX
  5
113
  8
SignTorch_-_WOLF_PAW_
 10
8.890137876722548
 20
6.907919840494792
 30
0.0
 42
-0.1420352001226247
  0
VERTEX
  5
114
  8
SignTorch_-_WOLF_PAW_
 10
8.820347775635131
 20
6.946114371283908
 30
0.0
 42
0.1746434111383576
  0
VERTEX
  5
115
  8
SignTorch_-_WOLF_PAW_
 10
8.748270689222545
 20
6.979794840494792
 30
0.0
 42
0.2141969369532649
  0
VERTEX
  5
116
  8
SignTorch_-_WOLF_PAW_
 10
8.653681512102997
 20
6.947323575068733
 30
0.0
 42
-0.0234036794052106
  0
VERTEX
  5
117
  8
SignTorch_-_WOLF_PAW_
 10
8.513331236097548
 20
6.827685465494791
 30
0.0
 42
-0.0823380298686475
  0
VERTEX
  5
118
  8
SignTorch_-_WOLF_PAW_
 10
8.454640157001734
 20
6.796017838087661
 30
0.0
 42
-0.3096293063293863
  0
VERTEX
  5
119
  8
SignTorch_-_WOLF_PAW_
 10
8.407423032972547
 20
6.809087809244792
 30
0.0
 42
-0.1605396339216368
  0
VERTEX
  5
11A
  8
SignTorch_-_WOLF_PAW_
 10
8.376431448416476
 20
6.886264888571586
 30
0.0
 42
0.2846346341249854
  0
VERTEX
  5
11B
  8
SignTorch_-_WOLF_PAW_
 10
8.328237486097548
 20
6.954044840494791
 30
0.0
 42
0.0192972524512873
  0
VERTEX
  5
11C
  8
SignTorch_-_WOLF_PAW_
 10
8.25405518737526
 20
6.981925785386475
 30
0.0
 42
-0.3519046581052303
  0
VERTEX
  5
11D
  8
SignTorch_-_WOLF_PAW_
 10
8.221456236097548
 20
7.032435465494791
 30
0.0
 42
-0.0702718365549131
  0
VERTEX
  5
11E
  8
SignTorch_-_WOLF_PAW_
 10
8.237208141132275
 20
7.095727915726791
 30
0.0
 42
0.0342354848034116
  0
VERTEX
  5
11F
  8
SignTorch_-_WOLF_PAW_
 10
8.318190611097549
 20
7.343591715494791
 30
0.0
 42
0.0406856059126572
  0
VERTEX
  5
120
  8
SignTorch_-_WOLF_PAW_
 10
8.446989109593313
 20
8.112262871029731
 30
0.0
 42
0.1477174107764236
  0
VERTEX
  5
121
  8
SignTorch_-_WOLF_PAW_
 10
8.415643736097547
 20
8.260326090494791
 30
0.0
 42
0.3590984355860965
  0
VERTEX
  5
122
  8
SignTorch_-_WOLF_PAW_
 10
8.281459562250568
 20
8.313819201947823
 30
0.0
 42
0.0780350420443827
  0
VERTEX
  5
123
  8
SignTorch_-_WOLF_PAW_
 10
7.752206236097546
 20
8.047685465494792
 30
0.0
 42
0.0392430035556248
  0
VERTEX
  5
124
  8
SignTorch_-_WOLF_PAW_
 10
7.597320773482182
 20
7.917194604720839
 30
0.0
 42
0.0493237003804268
  0
VERTEX
  5
125
  8
SignTorch_-_WOLF_PAW_
 10
7.494206236097548
 20
7.793185465494792
 30
0.0
 42
0.009350772985317
  0
VERTEX
  5
126
  8
SignTorch_-_WOLF_PAW_
 10
7.330480369358351
 20
7.541308371650917
 30
0.0
 42
-0.0903512239881677
  0
VERTEX
  5
127
  8
SignTorch_-_WOLF_PAW_
 10
7.279823423597548
 20
7.485595621744791
 30
0.0
 42
-0.2085024574162375
  0
VERTEX
  5
128
  8
SignTorch_-_WOLF_PAW_
 10
7.238937543727696
 20
7.475522326759465
 30
0.0
 42
-0.134981443697028
  0
VERTEX
  5
129
  8
SignTorch_-_WOLF_PAW_
 10
7.181456236097548
 20
7.502435465494791
 30
0.0
 42
-0.0371638319345355
  0
VERTEX
  5
12A
  8
SignTorch_-_WOLF_PAW_
 10
7.090037571336063
 20
7.592967555986378
 30
0.0
 42
0.0681274535847173
  0
VERTEX
  5
12B
  8
SignTorch_-_WOLF_PAW_
 10
6.993206236097548
 20
7.677685465494791
 30
0.0
 42
0.1134140362810011
  0
VERTEX
  5
12C
  8
SignTorch_-_WOLF_PAW_
 10
6.93465795230164
 20
7.699514013767332
 30
0.0
 42
0.3540640865119817
  0
VERTEX
  5
12D
  8
SignTorch_-_WOLF_PAW_
 10
6.858206236097547
 20
7.652685465494791
 30
0.0
 42
0.0496653451536205
  0
VERTEX
  5
12E
  8
SignTorch_-_WOLF_PAW_
 10
6.831383131554623
 20
7.543731766072173
 30
0.0
 42
-0.2841032556714874
  0
VERTEX
  5
12F
  8
SignTorch_-_WOLF_PAW_
 10
6.792253111097547
 20
7.496872965494791
 30
0.0
 42
-0.1904043653831231
  0
VERTEX
  5
130
  8
SignTorch_-_WOLF_PAW_
 10
6.718973772671198
 20
7.500898948578911
 30
0.0
 42
0.1107279760451753
  0
VERTEX
  5
131
  8
SignTorch_-_WOLF_PAW_
 10
6.585852232191297
 20
7.529360758463541
 30
0.0
 42
0.2382389831106126
  0
VERTEX
  5
132
  8
SignTorch_-_WOLF_PAW_
 10
6.476485717521148
 20
7.472744927803912
 30
0.0
 42
0.0861459476610641
  0
VERTEX
  5
133
  8
SignTorch_-_WOLF_PAW_
 10
6.440924986097547
 20
7.399779215494791
 30
0.0
 42
-0.0125405437702525
  0
VERTEX
  5
134
  8
SignTorch_-_WOLF_PAW_
 10
6.415619106950722
 20
7.319872086564208
 30
0.0
 42
-0.1185721004895278
  0
VERTEX
  5
135
  8
SignTorch_-_WOLF_PAW_
 10
6.393143736097547
 20
7.284638590494791
 30
0.0
 42
-0.0797373636021747
  0
VERTEX
  5
136
  8
SignTorch_-_WOLF_PAW_
 10
6.309357118724652
 20
7.226353026731307
 30
0.0
 42
0.0889198033177226
  0
VERTEX
  5
137
  8
SignTorch_-_WOLF_PAW_
 10
5.978528501722547
 20
6.987146402994792
 30
0.0
 42
0.0579139243010147
  0
VERTEX
  5
138
  8
SignTorch_-_WOLF_PAW_
 10
5.834731079163896
 20
6.798653681319295
 30
0.0
 42
-0.2230541850773777
  0
VERTEX
  5
139
  8
SignTorch_-_WOLF_PAW_
 10
5.785159361097547
 20
6.765038981119791
 30
0.0
 42
-0.3307462070773097
  0
VERTEX
  5
13A
  8
SignTorch_-_WOLF_PAW_
 10
5.743377731880813
 20
6.786891206704706
 30
0.0
 42
0.152661873417996
  0
VERTEX
  5
13B
  8
SignTorch_-_WOLF_PAW_
 10
5.683831236097547
 20
6.850419840494791
 30
0.0
 42
0.3821663106972187
  0
VERTEX
  5
13C
  8
SignTorch_-_WOLF_PAW_
 10
5.627929295266163
 20
6.838193531262743
 30
0.0
 42
0.0252865230574339
  0
VERTEX
  5
13D
  8
SignTorch_-_WOLF_PAW_
 10
5.560956236097548
 20
6.734810465494791
 30
0.0
 42
-0.1072651440125114
  0
VERTEX
  5
13E
  8
SignTorch_-_WOLF_PAW_
 10
5.514084043366715
 20
6.68326898977678
 30
0.0
 42
-0.3290793722860235
  0
VERTEX
  5
13F
  8
SignTorch_-_WOLF_PAW_
 10
5.489206236097547
 20
6.683685465494791
 30
0.0
 42
-0.2403882137656833
  0
VERTEX
  5
140
  8
SignTorch_-_WOLF_PAW_
 10
5.455196466546188
 20
6.754743264466381
 30
0.0
 42
0.0437139241963475
  0
VERTEX
  5
141
  8
SignTorch_-_WOLF_PAW_
 10
5.446206236097547
 20
6.899685465494791
 30
0.0
 42
0.0436271332786165
  0
VERTEX
  5
142
  8
SignTorch_-_WOLF_PAW_
 10
5.402047099369889
 20
7.082896000067358
 30
0.0
 42
0.0382435827925511
  0
VERTEX
  5
143
  8
SignTorch_-_WOLF_PAW_
 10
5.318331236097547
 20
7.280810465494791
 30
0.0
 42
0.0815611071003247
  0
VERTEX
  5
144
  8
SignTorch_-_WOLF_PAW_
 10
5.211120239684491
 20
7.424992886166025
 30
0.0
 42
0.343425142502525
  0
VERTEX
  5
145
  8
SignTorch_-_WOLF_PAW_
 10
4.979999204847547
 20
7.449828043619791
 30
0.0
 42
0.0993252581274297
  0
VERTEX
  5
146
  8
SignTorch_-_WOLF_PAW_
 10
4.894024229799624
 20
7.369320728630738
 30
0.0
 42
0.0615403399849158
  0
VERTEX
  5
147
  8
SignTorch_-_WOLF_PAW_
 10
4.679952329847548
 20
6.974939371744791
 30
0.0
 42
0.0686501986660617
  0
VERTEX
  5
148
  8
SignTorch_-_WOLF_PAW_
 10
4.596668419244922
 20
6.630573692318942
 30
0.0
 42
-0.0536438796887634
  0
VERTEX
  5
149
  8
SignTorch_-_WOLF_PAW_
 10
4.578428892347548
 20
6.543890543619792
 30
0.0
 42
-0.1898037286548483
  0
VERTEX
  5
14A
  8
SignTorch_-_WOLF_PAW_
 10
4.550200309058024
 20
6.50966854711045
 30
0.0
 42
-0.2301469796627549
  0
VERTEX
  5
14B
  8
SignTorch_-_WOLF_PAW_
 10
4.513069517347547
 20
6.507679606119792
 30
0.0
 42
-0.1274144757121453
  0
VERTEX
  5
14C
  8
SignTorch_-_WOLF_PAW_
 10
4.435747977770885
 20
6.566748787123224
 30
0.0
 42
0.2510790071032262
  0
VERTEX
  5
14D
  8
SignTorch_-_WOLF_PAW_
 10
4.346659361097547
 20
6.605876871744792
 30
0.0
 42
0.4087140008358491
  0
VERTEX
  5
14E
  8
SignTorch_-_WOLF_PAW_
 10
4.262897639142952
 20
6.509728339218844
 30
0.0
 42
-0.1200634832786347
  0
VERTEX
  5
14F
  8
SignTorch_-_WOLF_PAW_
 10
4.240112486097547
 20
6.384263590494792
 30
0.0
 42
-0.2750727661409496
  0
VERTEX
  5
150
  8
SignTorch_-_WOLF_PAW_
 10
4.147357370031617
 20
6.318701170004977
 30
0.0
 42
0.093056568916798
  0
VERTEX
  5
151
  8
SignTorch_-_WOLF_PAW_
 10
4.037706236097547
 20
6.289060465494792
 30
0.0
 42
0.2619540949942291
  0
VERTEX
  5
152
  8
SignTorch_-_WOLF_PAW_
 10
3.974499698779888
 20
6.198396942699624
 30
0.0
 42
-0.0766339558721111
  0
VERTEX
  5
153
  8
SignTorch_-_WOLF_PAW_
 10
3.947221861097547
 20
6.091294840494792
 30
0.0
 42
-0.0826201287460345
  0
VERTEX
  5
154
  8
SignTorch_-_WOLF_PAW_
 10
3.897740254340244
 20
6.013622672727069
 30
0.0
 42
0.1451905994348394
  0
VERTEX
  5
155
  8
SignTorch_-_WOLF_PAW_
 10
3.739835142347547
 20
5.681425699869791
 30
0.0
 42
0.1358279990412139
  0
VERTEX
  5
156
  8
SignTorch_-_WOLF_PAW_
 10
3.796168003509408
 20
5.192223478258207
 30
0.0
 42
-0.0721569679217649
  0
VERTEX
  5
157
  8
SignTorch_-_WOLF_PAW_
 10
3.825548032972547
 20
5.072470621744792
 30
0.0
 42
-0.0934826110776036
  0
VERTEX
  5
158
  8
SignTorch_-_WOLF_PAW_
 10
3.821132080055043
 20
5.023482719968957
 30
0.0
 42
-0.1334164565384145
  0
VERTEX
  5
159
  8
SignTorch_-_WOLF_PAW_
 10
3.803206236097548
 20
4.993685465494792
 30
0.0
 42
-0.1020456996095854
  0
VERTEX
  5
15A
  8
SignTorch_-_WOLF_PAW_
 10
3.719767644940189
 20
4.941309500746486
 30
0.0
 42
0.2294289007763245
  0
VERTEX
  5
15B
  8
SignTorch_-_WOLF_PAW_
 10
3.683010923597547
 20
4.902835856119792
 30
0.0
 42
0.2502652822919134
  0
VERTEX
  5
15C
  8
SignTorch_-_WOLF_PAW_
 10
3.69381958807007
 20
4.843074188170722
 30
0.0
 42
-0.0136241254740773
  0
VERTEX
  5
15D
  8
SignTorch_-_WOLF_PAW_
 10
3.836206236097548
 20
4.652685465494792
 30
0.0
 42
-0.0864625717750525
  0
VERTEX
  5
15E
  8
SignTorch_-_WOLF_PAW_
 10
3.892045167187475
 20
4.534809893091353
 30
0.0
 42
-0.2325134335388744
  0
VERTEX
  5
15F
  8
SignTorch_-_WOLF_PAW_
 10
3.882610532972547
 20
4.484949137369791
 30
0.0
 42
-0.0784239837591754
  0
VERTEX
  5
160
  8
SignTorch_-_WOLF_PAW_
 10
3.83934467026962
 20
4.442966073828935
 30
0.0
 42
0.2266119677600204
  0
VERTEX
  5
161
  8
SignTorch_-_WOLF_PAW_
 10
3.809846861097548
 20
4.390388590494792
 30
0.0
 42
0.130930542285022
  0
VERTEX
  5
162
  8
SignTorch_-_WOLF_PAW_
 10
3.821310601614225
 20
4.332286229264009
 30
0.0
 42
0.0425268127765616
  0
VERTEX
  5
163
  8
SignTorch_-_WOLF_PAW_
 10
4.017784361097547
 20
4.004654215494792
 30
0.0
 42
0.07537356419319
  0
VERTEX
  5
164
  8
SignTorch_-_WOLF_PAW_
 10
4.282262809806139
 20
3.734967318154808
 30
0.0
 42
-0.0984517320677135
  0
VERTEX
  5
165
  8
SignTorch_-_WOLF_PAW_
 10
4.417889341566297
 20
3.583366373697917
 30
0.0
 42
-0.1952037361437034
  0
VERTEX
  5
166
  8
SignTorch_-_WOLF_PAW_
 10
4.440736550214425
 20
3.430132060009383
 30
0.0
 42
-0.078082101852309
  0
VERTEX
  5
167
  8
SignTorch_-_WOLF_PAW_
 10
4.403374204847548
 20
3.340109293619792
 30
0.0
 42
-0.021962675658335
  0
VERTEX
  5
168
  8
SignTorch_-_WOLF_PAW_
 10
4.304986670128558
 20
3.194165700294766
 30
0.0
 42
0.0723274819866689
  0
VERTEX
  5
169
  8
SignTorch_-_WOLF_PAW_
 10
4.150456236097547
 20
2.906310465494792
 30
0.0
 42
0.1049089677667403
  0
VERTEX
  5
16A
  8
SignTorch_-_WOLF_PAW_
 10
4.105030385442255
 20
2.582137569043906
 30
0.0
 42
0.3067778333880401
  0
VERTEX
  5
16B
  8
SignTorch_-_WOLF_PAW_
 10
4.156417173597547
 20
2.516626871744791
 30
0.0
 42
0.1146565904384298
  0
VERTEX
  5
16C
  8
SignTorch_-_WOLF_PAW_
 10
4.234037101002577
 20
2.510248083139135
 30
0.0
 42
-0.3292671304912226
  0
VERTEX
  5
16D
  8
SignTorch_-_WOLF_PAW_
 10
4.271351743910047
 20
2.490351969401041
 30
0.0
 42
-0.2346313333482735
  0
VERTEX
  5
16E
  8
SignTorch_-_WOLF_PAW_
 10
4.270472242416724
 20
2.435912631985512
 30
0.0
 42
0.0713959865155229
  0
VERTEX
  5
16F
  8
SignTorch_-_WOLF_PAW_
 10
4.199690611097547
 20
2.232279215494791
 30
0.0
 42
0.1314382977969417
  0
VERTEX
  5
170
  8
SignTorch_-_WOLF_PAW_
 10
4.215461818887835
 20
2.005390449534223
 30
0.0
 42
0.3106405364243151
  0
VERTEX
  5
171
  8
SignTorch_-_WOLF_PAW_
 10
4.254206236097547
 20
1.976685465494791
 30
0.0
 42
0.2282193240638597
  0
VERTEX
  5
172
  8
SignTorch_-_WOLF_PAW_
 10
4.325268986774256
 20
2.007867190967927
 30
0.0
 42
-0.186740804270693
  0
VERTEX
  5
173
  8
SignTorch_-_WOLF_PAW_
 10
4.393630064222547
 20
2.044595621744791
 30
0.0
 42
-0.3665046674620553
  0
VERTEX
  5
174
  8
SignTorch_-_WOLF_PAW_
 10
4.450509883090248
 20
2.007426035017361
 30
0.0
 42
0.1025424416731314
  0
VERTEX
  5
175
  8
SignTorch_-_WOLF_PAW_
 10
4.576143736097547
 20
1.773997965494792
 30
0.0
 42
0.0724532167225592
  0
VERTEX
  5
176
  8
SignTorch_-_WOLF_PAW_
 10
4.796948919922121
 20
1.577179901220674
 30
0.0
 42
0.0653014516969111
  0
VERTEX
  5
177
  8
SignTorch_-_WOLF_PAW_
 10
5.567983579847548
 20
1.201915934244792
 30
0.0
 42
0.0564453455263511
  0
VERTEX
  5
178
  8
SignTorch_-_WOLF_PAW_
 10
5.958325545559104
 20
1.118813870339023
 30
0.0
 42
-0.0663130747791859
  0
VERTEX
  5
179
  8
SignTorch_-_WOLF_PAW_
 10
6.055487486097547
 20
1.096122965494791
 30
0.0
 42
-0.142438851583368
  0
VERTEX
  5
17A
  8
SignTorch_-_WOLF_PAW_
 10
6.177848604379446
 20
1.004097514143781
 30
0.0
 42
0.0540968394794558
  0
VERTEX
  5
17B
  8
SignTorch_-_WOLF_PAW_
 10
6.282331236097547
 20
0.8921854654947916
 30
0.0
 42
0.1338937014923505
  0
VERTEX
  5
17C
  8
SignTorch_-_WOLF_PAW_
 10
6.376903553943057
 20
0.8470342912707995
 30
0.0
 42
0.1766488933949458
  0
VERTEX
  5
17D
  8
SignTorch_-_WOLF_PAW_
 10
6.456206236097548
 20
0.8606854654947916
 30
0.0
 42
0.0565744142392344
  0
VERTEX
  5
17E
  8
SignTorch_-_WOLF_PAW_
 10
6.589704457979714
 20
0.9586743489403745
 30
0.0
 42
-0.1949567892548087
  0
VERTEX
  5
17F
  8
SignTorch_-_WOLF_PAW_
 10
6.673432066175672
 20
0.9902980143229168
 30
0.0
 42
-0.2673399922974364
  0
VERTEX
  5
180
  8
SignTorch_-_WOLF_PAW_
 10
6.763020635137167
 20
0.9358120926476702
 30
0.0
 42
0.0372932977685742
  0
VERTEX
  5
181
  8
SignTorch_-_WOLF_PAW_
 10
6.868100767347547
 20
0.7741854654947917
 30
0.0
 42
0.0832751858545392
  0
VERTEX
  5
182
  8
SignTorch_-_WOLF_PAW_
 10
6.966080393685317
 20
0.6822464044214646
 30
0.0
 42
0.3188218240326021
  0
VERTEX
  5
183
  8
SignTorch_-_WOLF_PAW_
 10
7.064048521253797
 20
0.6851698404947917
 30
0.0
 42
0.0981527552508553
  0
VERTEX
  5
184
  8
SignTorch_-_WOLF_PAW_
 10
7.116933295097447
 20
0.7445006285921132
 30
0.0
 42
-0.0870956366849792
  0
VERTEX
  5
185
  8
SignTorch_-_WOLF_PAW_
 10
7.212706236097547
 20
0.8568104654947917
 30
0.0
 42
-0.0983838080669945
  0
VERTEX
  5
186
  8
SignTorch_-_WOLF_PAW_
 10
7.263861467784952
 20
0.8844132611722911
 30
0.0
 42
-0.3088323728074708
  0
VERTEX
  5
187
  8
SignTorch_-_WOLF_PAW_
 10
7.343593931410047
 20
0.8597140299479167
 30
0.0
 42
-0.0725241397773645
  0
VERTEX
  5
188
  8
SignTorch_-_WOLF_PAW_
 10
7.389912657206968
 20
0.7800261163709722
 30
0.0
 42
0.1623952426223754
  0
VERTEX
  5
189
  8
SignTorch_-_WOLF_PAW_
 10
7.449551939222547
 20
0.7097499186197918
 30
0.0
 42
0.2881523877026207
  0
VERTEX
  5
18A
  8
SignTorch_-_WOLF_PAW_
 10
7.525269984841709
 20
0.7109609560900018
 30
0.0
 42
0.0864012243941348
  0
VERTEX
  5
18B
  8
SignTorch_-_WOLF_PAW_
 10
7.596549986097548
 20
0.7772948404947917
 30
0.0
 42
-0.0078107281168675
  0
VERTEX
  5
18C
  8
SignTorch_-_WOLF_PAW_
 10
7.671292740433573
 20
0.8726961738495025
 30
0.0
 42
-0.1256405622847602
  0
VERTEX
  5
18D
  8
SignTorch_-_WOLF_PAW_
 10
7.765866880628797
 20
0.9432037760416666
 30
0.0
 42
-0.0862712766588476
  0
VERTEX
  5
18E
  8
SignTorch_-_WOLF_PAW_
 10
7.905006930566874
 20
0.9741056500412194
 30
0.0
 42
0.1001440729347669
  0
VERTEX
  5
18F
  8
SignTorch_-_WOLF_PAW_
 10
8.457915220472549
 20
1.112962809244792
 30
0.0
 42
0.0727423992081824
  0
VERTEX
  5
190
  8
SignTorch_-_WOLF_PAW_
 10
8.744428074056348
 20
1.305173843175357
 30
0.0
 42
0.0155557383276951
  0
VERTEX
  5
191
  8
SignTorch_-_WOLF_PAW_
 10
8.942440611097547
 20
1.496122965494792
 30
0.0
 42
-0.0188359965595071
  0
VERTEX
  5
192
  8
SignTorch_-_WOLF_PAW_
 10
9.140465139268578
 20
1.684592857665232
 30
0.0
 42
-0.0898228916611221
  0
VERTEX
  5
193
  8
SignTorch_-_WOLF_PAW_
 10
9.432066831800672
 20
1.860916910807292
 30
0.0
 42
-0.1275636307227589
  0
VERTEX
  5
194
  8
SignTorch_-_WOLF_PAW_
 10
9.963986954526332
 20
1.920164784151847
 30
0.0
 42
0.118824206143842
  0
VERTEX
  5
195
  8
SignTorch_-_WOLF_PAW_
 10
10.09720623609755
 20
1.932685465494791
 30
0.0
 42
0.3402125272645832
  0
VERTEX
  5
196
  8
SignTorch_-_WOLF_PAW_
 10
10.15427919249589
 20
2.018912645537401
 30
0.0
 42
-0.1258296357416652
  0
VERTEX
  5
197
  8
SignTorch_-_WOLF_PAW_
 10
10.16428436109755
 20
2.074154215494791
 30
0.0
 42
-0.2651625933774868
  0
VERTEX
  5
198
  8
SignTorch_-_WOLF_PAW_
 10
10.23179766983612
 20
2.122647036598293
 30
0.0
 42
-0.0308735555297822
  0
VERTEX
  5
199
  8
SignTorch_-_WOLF_PAW_
 10
10.39045623609755
 20
2.129435465494791
 30
0.0
 42
0.0059202653424793
  0
VERTEX
  5
19A
  8
SignTorch_-_WOLF_PAW_
 10
10.48134298124211
 20
2.128787723610379
 30
0.0
 42
0.4802798047322274
  0
VERTEX
  5
19B
  8
SignTorch_-_WOLF_PAW_
 10
10.53158123609755
 20
2.192122965494792
 30
0.0
 42
0.1583597381589191
  0
VERTEX
  5
19C
  8
SignTorch_-_WOLF_PAW_
 10
10.49014113611839
 20
2.261409753700656
 30
0.0
 42
-0.3369364723727573
  0
VERTEX
  5
19D
  8
SignTorch_-_WOLF_PAW_
 10
10.47385272047255
 20
2.340483317057291
 30
0.0
 42
-0.1283862805143962
  0
VERTEX
  5
19E
  8
SignTorch_-_WOLF_PAW_
 10
10.509943076204
 20
2.383139946839703
 30
0.0
 42
0.0404843617003054
  0
VERTEX
  5
19F
  8
SignTorch_-_WOLF_PAW_
 10
10.68120623609755
 20
2.525685465494792
 30
0.0
 42
0.0788179968377928
  0
VERTEX
  5
1A0
  8
SignTorch_-_WOLF_PAW_
 10
10.97158030740108
 20
2.916975742496104
 30
0.0
 42
0.0144846195757961
  0
SEQEND
  5
1A1
  8
SignTorch_-_WOLF_PAW_
  0
ENDSEC
  0
EOF
